ISO-10303-21;
HEADER;
FILE_DESCRIPTION (( 'STEP AP203' ),
    '1' );
FILE_NAME ('bae3.STEP',
    '2023-02-13T16:04:08',
    ( '' ),
    ( '' ),
    'SwSTEP 2.0',
    'SolidWorks 2019',
    '' );
FILE_SCHEMA (( 'CONFIG_CONTROL_DESIGN' ));
ENDSEC;

DATA;
#1 = CIRCLE ( 'NONE', #102, 5.000000000000000000 ) ;
#2 = DATE_AND_TIME ( #164, #78 ) ;
#3 = ORIENTED_EDGE ( 'NONE', *, *, #21, .T. ) ;
#4 = COORDINATED_UNIVERSAL_TIME_OFFSET ( 1, 0, .AHEAD. ) ;
#5 = UNCERTAINTY_MEASURE_WITH_UNIT (LENGTH_MEASURE( 1.000000000000000082E-05 ), #131, 'distance_accuracy_value', 'NONE');
#6 = APPLICATION_CONTEXT ( 'configuration controlled 3d designs of mechanical parts and assemblies' ) ;
#7 = ORIENTED_EDGE ( 'NONE', *, *, #90, .F. ) ;
#8 = PERSON_AND_ORGANIZATION ( #44, #22 ) ;
#9 = CARTESIAN_POINT ( 'NONE',  ( 0.000000000000000000, 0.000000000000000000, 200.0000000000000000 ) ) ;
#10 = DIRECTION ( 'NONE',  ( 0.000000000000000000, 0.000000000000000000, 1.000000000000000000 ) ) ;
#11 = PERSON_AND_ORGANIZATION ( #44, #22 ) ;
#12 = FACE_OUTER_BOUND ( 'NONE', #120, .T. ) ;
#13 = CARTESIAN_POINT ( 'NONE',  ( 0.000000000000000000, 0.000000000000000000, 0.000000000000000000 ) ) ;
#14 = CARTESIAN_POINT ( 'NONE',  ( 0.000000000000000000, 0.000000000000000000, 5.000000000000000000 ) ) ;
#15 = EDGE_CURVE ( 'NONE', #62, #95, #82, .T. ) ;
#16 = CARTESIAN_POINT ( 'NONE',  ( 0.000000000000000000, 0.000000000000000000, 0.000000000000000000 ) ) ;
#17 = DIRECTION ( 'NONE',  ( 1.000000000000000000, 0.000000000000000000, 0.000000000000000000 ) ) ;
#18 = APPROVAL_ROLE ( '' ) ;
#19 = ADVANCED_FACE ( 'NONE', ( #231 ), #39, .F. ) ;
#20 = APPLICATION_PROTOCOL_DEFINITION ( 'international standard', 'config_control_design', 1994, #6 ) ;
#21 = EDGE_CURVE ( 'NONE', #191, #62, #246, .T. ) ;
#22 = ORGANIZATION ( 'NEURÈENÝ', 'NEURÈENÝ', '' ) ;
#23 = LOCAL_TIME ( 17, 4, 8.000000000000000000, #4 ) ;
#24 = DATE_AND_TIME ( #109, #100 ) ;
#25 = VERTEX_POINT ( 'NONE', #58 ) ;
#26 = CALENDAR_DATE ( 2023, 13, 2 ) ;
#27 = ORIENTED_EDGE ( 'NONE', *, *, #160, .T. ) ;
#28 = ADVANCED_FACE ( 'NONE', ( #192, #193 ), #252, .T. ) ;
#29 = CIRCLE ( 'NONE', #178, 2.600000000000000089 ) ;
#30 = ORIENTED_EDGE ( 'NONE', *, *, #15, .T. ) ;
#31 = DIRECTION ( 'NONE',  ( 1.000000000000000000, 0.000000000000000000, 0.000000000000000000 ) ) ;
#32 = MANIFOLD_SOLID_BREP ( 'Pøidat vysunutím3', #202 ) ;
#33 = DIRECTION ( 'NONE',  ( -0.000000000000000000, -0.000000000000000000, -1.000000000000000000 ) ) ;
#34 = CC_DESIGN_APPROVAL ( #37, ( #128 ) ) ;
#35 = DIRECTION ( 'NONE',  ( -1.000000000000000000, 0.000000000000000000, 0.000000000000000000 ) ) ;
#36 = DIRECTION ( 'NONE',  ( 0.000000000000000000, 0.000000000000000000, 1.000000000000000000 ) ) ;
#37 = APPROVAL ( #239, 'NEURÈENÝ' ) ;
#38 = CYLINDRICAL_SURFACE ( 'NONE', #49, 2.600000000000000089 ) ;
#39 = PLANE ( 'NONE',  #225 ) ;
#40 = DIRECTION ( 'NONE',  ( -0.000000000000000000, -0.000000000000000000, -1.000000000000000000 ) ) ;
#41 = PERSON_AND_ORGANIZATION ( #44, #22 ) ;
#42 = EDGE_CURVE ( 'NONE', #48, #149, #63, .T. ) ;
#43 = DIRECTION ( 'NONE',  ( 1.000000000000000000, 0.000000000000000000, 0.000000000000000000 ) ) ;
#44 = PERSON ( 'NEURÈENÝ', 'NEURÈENÝ', 'NEURÈENÝ', ('NEURÈENÝ'), ('NEURÈENÝ'), ('NEURÈENÝ') ) ;
#45 = COORDINATED_UNIVERSAL_TIME_OFFSET ( 1, 0, .AHEAD. ) ;
#46 = APPROVAL_PERSON_ORGANIZATION ( #41, #37, #18 ) ;
#47 = APPROVAL_PERSON_ORGANIZATION ( #124, #106, #79 ) ;
#48 = VERTEX_POINT ( 'NONE', #169 ) ;
#49 = AXIS2_PLACEMENT_3D ( 'NONE', #139, #66, #35 ) ;
#50 = EDGE_LOOP ( 'NONE', ( #110, #204, #118, #7 ) ) ;
#51 = EDGE_CURVE ( 'NONE', #149, #48, #1, .T. ) ;
#52 = VERTEX_POINT ( 'NONE', #54 ) ;
#53 = CYLINDRICAL_SURFACE ( 'NONE', #94, 5.000000000000000000 ) ;
#54 = CARTESIAN_POINT ( 'NONE',  ( 5.000000000000000000, 6.123233995736766282E-16, 0.000000000000000000 ) ) ;
#55 = DIRECTION ( 'NONE',  ( -0.000000000000000000, -0.000000000000000000, -1.000000000000000000 ) ) ;
#56 = AXIS2_PLACEMENT_3D ( 'NONE', #74, #55, #213 ) ;
#57 = CYLINDRICAL_SURFACE ( 'NONE', #85, 2.600000000000000089 ) ;
#58 = CARTESIAN_POINT ( 'NONE',  ( 2.600000000000000089, 3.184081677783118191E-16, 200.0000000000000000 ) ) ;
#59 = ORIENTED_EDGE ( 'NONE', *, *, #70, .F. ) ;
#60 =( NAMED_UNIT ( * ) PLANE_ANGLE_UNIT ( ) SI_UNIT ( $, .RADIAN. ) );
#61 = CC_DESIGN_DATE_AND_TIME_ASSIGNMENT ( #77, #157, ( #73 ) ) ;
#62 = VERTEX_POINT ( 'NONE', #151 ) ;
#63 = CIRCLE ( 'NONE', #183, 5.000000000000000000 ) ;
#64 = CARTESIAN_POINT ( 'NONE',  ( 0.000000000000000000, 0.000000000000000000, 5.000000000000000000 ) ) ;
#65 = LOCAL_TIME ( 17, 4, 8.000000000000000000, #146 ) ;
#66 = DIRECTION ( 'NONE',  ( -0.000000000000000000, -0.000000000000000000, -1.000000000000000000 ) ) ;
#67 = DIRECTION ( 'NONE',  ( 0.000000000000000000, 0.000000000000000000, 1.000000000000000000 ) ) ;
#68 = CARTESIAN_POINT ( 'NONE',  ( 0.000000000000000000, 0.000000000000000000, 5.000000000000000000 ) ) ;
#69 = SECURITY_CLASSIFICATION_LEVEL ( 'unclassified' ) ;
#70 = EDGE_CURVE ( 'NONE', #206, #52, #138, .T. ) ;
#71 = FACE_OUTER_BOUND ( 'NONE', #227, .T. ) ;
#72 = ORIENTED_EDGE ( 'NONE', *, *, #160, .F. ) ;
#73 = SECURITY_CLASSIFICATION ( '', '', #69 ) ;
#74 = CARTESIAN_POINT ( 'NONE',  ( 0.000000000000000000, 0.000000000000000000, 5.000000000000000000 ) ) ;
#75 = CARTESIAN_POINT ( 'NONE',  ( 0.000000000000000000, 0.000000000000000000, 5.000000000000000000 ) ) ;
#76 = CIRCLE ( 'NONE', #114, 5.000000000000000000 ) ;
#77 = DATE_AND_TIME ( #99, #158 ) ;
#78 = LOCAL_TIME ( 17, 4, 8.000000000000000000, #45 ) ;
#79 = APPROVAL_ROLE ( '' ) ;
#80 = ORIENTED_EDGE ( 'NONE', *, *, #228, .F. ) ;
#81 = EDGE_LOOP ( 'NONE', ( #207, #166, #3, #30 ) ) ;
#82 = CIRCLE ( 'NONE', #111, 2.600000000000000089 ) ;
#83 = AXIS2_PLACEMENT_3D ( 'NONE', #122, #150, #17 ) ;
#84 = COORDINATED_UNIVERSAL_TIME_OFFSET ( 1, 0, .AHEAD. ) ;
#85 = AXIS2_PLACEMENT_3D ( 'NONE', #134, #214, #197 ) ;
#86 = CARTESIAN_POINT ( 'NONE',  ( -2.600000000000000089, 0.000000000000000000, 200.0000000000000000 ) ) ;
#87 = PLANE ( 'NONE',  #187 ) ;
#88 = DIRECTION ( 'NONE',  ( 1.000000000000000000, 0.000000000000000000, 0.000000000000000000 ) ) ;
#89 =( NAMED_UNIT ( * ) SI_UNIT ( $, .STERADIAN. ) SOLID_ANGLE_UNIT ( ) );
#90 = EDGE_CURVE ( 'NONE', #48, #206, #212, .T. ) ;
#91 = VECTOR ( 'NONE', #152, 1000.000000000000000 ) ;
#92 = DIRECTION ( 'NONE',  ( 1.000000000000000000, 0.000000000000000000, -0.000000000000000000 ) ) ;
#93 = FACE_OUTER_BOUND ( 'NONE', #50, .T. ) ;
#94 = AXIS2_PLACEMENT_3D ( 'NONE', #117, #115, #97 ) ;
#95 = VERTEX_POINT ( 'NONE', #233 ) ;
#96 = APPLICATION_CONTEXT ( 'configuration controlled 3d designs of mechanical parts and assemblies' ) ;
#97 = DIRECTION ( 'NONE',  ( -1.000000000000000000, 0.000000000000000000, 0.000000000000000000 ) ) ;
#98 = ADVANCED_FACE ( 'NONE', ( #12 ), #57, .T. ) ;
#99 = CALENDAR_DATE ( 2023, 13, 2 ) ;
#100 = LOCAL_TIME ( 17, 4, 8.000000000000000000, #84 ) ;
#101 = APPROVAL_STATUS ( 'not_yet_approved' ) ;
#102 = AXIS2_PLACEMENT_3D ( 'NONE', #68, #116, #171 ) ;
#103 = ORIENTED_EDGE ( 'NONE', *, *, #90, .T. ) ;
#104 = PERSON_AND_ORGANIZATION ( #44, #22 ) ;
#105 = ORIENTED_EDGE ( 'NONE', *, *, #221, .F. ) ;
#106 = APPROVAL ( #101, 'NEURÈENÝ' ) ;
#107 = ORIENTED_EDGE ( 'NONE', *, *, #190, .F. ) ;
#108 = DATE_AND_TIME ( #26, #65 ) ;
#109 = CALENDAR_DATE ( 2023, 13, 2 ) ;
#110 = ORIENTED_EDGE ( 'NONE', *, *, #51, .F. ) ;
#111 = AXIS2_PLACEMENT_3D ( 'NONE', #14, #36, #112 ) ;
#112 = DIRECTION ( 'NONE',  ( 1.000000000000000000, 0.000000000000000000, 0.000000000000000000 ) ) ;
#113 = PERSON_AND_ORGANIZATION_ROLE ( 'creator' ) ;
#114 = AXIS2_PLACEMENT_3D ( 'NONE', #13, #148, #215 ) ;
#115 = DIRECTION ( 'NONE',  ( -0.000000000000000000, -0.000000000000000000, -1.000000000000000000 ) ) ;
#116 = DIRECTION ( 'NONE',  ( 0.000000000000000000, 0.000000000000000000, 1.000000000000000000 ) ) ;
#117 = CARTESIAN_POINT ( 'NONE',  ( 0.000000000000000000, 0.000000000000000000, 5.000000000000000000 ) ) ;
#118 = ORIENTED_EDGE ( 'NONE', *, *, #221, .T. ) ;
#119 = PRODUCT_DEFINITION_SHAPE ( 'NONE', 'NONE',  #128 ) ;
#120 = EDGE_LOOP ( 'NONE', ( #72, #220, #195, #240 ) ) ;
#121 = EDGE_CURVE ( 'NONE', #25, #95, #236, .T. ) ;
#122 = CARTESIAN_POINT ( 'NONE',  ( 0.000000000000000000, 0.000000000000000000, 5.000000000000000000 ) ) ;
#123 = AXIS2_PLACEMENT_3D ( 'NONE', #64, #10, #180 ) ;
#124 = PERSON_AND_ORGANIZATION ( #44, #22 ) ;
#125 = EDGE_CURVE ( 'NONE', #191, #25, #186, .T. ) ;
#126 = APPLICATION_PROTOCOL_DEFINITION ( 'international standard', 'config_control_design', 1994, #96 ) ;
#127 = ORIENTED_EDGE ( 'NONE', *, *, #42, .F. ) ;
#128 = PRODUCT_DEFINITION ( 'NEZNÁMÝ', '', #163, #230 ) ;
#129 = CIRCLE ( 'NONE', #83, 2.600000000000000089 ) ;
#130 = APPROVAL_PERSON_ORGANIZATION ( #137, #145, #226 ) ;
#131 =( LENGTH_UNIT ( ) NAMED_UNIT ( * ) SI_UNIT ( .MILLI., .METRE. ) );
#132 = CARTESIAN_POINT ( 'NONE',  ( 0.000000000000000000, 0.000000000000000000, 0.000000000000000000 ) ) ;
#133 = DIRECTION ( 'NONE',  ( 0.000000000000000000, 0.000000000000000000, 1.000000000000000000 ) ) ;
#134 = CARTESIAN_POINT ( 'NONE',  ( 0.000000000000000000, 0.000000000000000000, 200.0000000000000000 ) ) ;
#135 = CARTESIAN_POINT ( 'NONE',  ( -5.000000000000000000, 0.000000000000000000, 5.000000000000000000 ) ) ;
#136 = ADVANCED_FACE ( 'NONE', ( #93 ), #217, .T. ) ;
#137 = PERSON_AND_ORGANIZATION ( #44, #22 ) ;
#138 = CIRCLE ( 'NONE', #254, 5.000000000000000000 ) ;
#139 = CARTESIAN_POINT ( 'NONE',  ( 0.000000000000000000, 0.000000000000000000, 200.0000000000000000 ) ) ;
#140 = DIRECTION ( 'NONE',  ( 0.000000000000000000, 0.000000000000000000, 1.000000000000000000 ) ) ;
#141 = PERSON_AND_ORGANIZATION_ROLE ( 'classification_officer' ) ;
#142 = PERSON_AND_ORGANIZATION_ROLE ( 'design_owner' ) ;
#143 = PERSON_AND_ORGANIZATION ( #44, #22 ) ;
#144 = MECHANICAL_CONTEXT ( 'NONE', #96, 'mechanical' ) ;
#145 = APPROVAL ( #181, 'NEURÈENÝ' ) ;
#146 = COORDINATED_UNIVERSAL_TIME_OFFSET ( 1, 0, .AHEAD. ) ;
#147 = APPROVAL_DATE_TIME ( #24, #37 ) ;
#148 = DIRECTION ( 'NONE',  ( 0.000000000000000000, 0.000000000000000000, 1.000000000000000000 ) ) ;
#149 = VERTEX_POINT ( 'NONE', #198 ) ;
#150 = DIRECTION ( 'NONE',  ( 0.000000000000000000, 0.000000000000000000, 1.000000000000000000 ) ) ;
#151 = CARTESIAN_POINT ( 'NONE',  ( -2.600000000000000089, 0.000000000000000000, 5.000000000000000000 ) ) ;
#152 = DIRECTION ( 'NONE',  ( -0.000000000000000000, -0.000000000000000000, -1.000000000000000000 ) ) ;
#153 = CC_DESIGN_PERSON_AND_ORGANIZATION_ASSIGNMENT ( #11, #210, ( #163 ) ) ;
#154 = DIRECTION ( 'NONE',  ( 0.000000000000000000, 0.000000000000000000, 1.000000000000000000 ) ) ;
#155 = VECTOR ( 'NONE', #33, 1000.000000000000000 ) ;
#156 = COORDINATED_UNIVERSAL_TIME_OFFSET ( 1, 0, .AHEAD. ) ;
#157 = DATE_TIME_ROLE ( 'classification_date' ) ;
#158 = LOCAL_TIME ( 17, 4, 8.000000000000000000, #156 ) ;
#159 = DIRECTION ( 'NONE',  ( -0.000000000000000000, -0.000000000000000000, -1.000000000000000000 ) ) ;
#160 = EDGE_CURVE ( 'NONE', #25, #191, #29, .T. ) ;
#161 = SHAPE_DEFINITION_REPRESENTATION ( #119, #162 ) ;
#162 = ADVANCED_BREP_SHAPE_REPRESENTATION ( 'bae3', ( #32, #216 ), #184 ) ;
#163 = PRODUCT_DEFINITION_FORMATION_WITH_SPECIFIED_SOURCE ( 'LIBOVOLNÝ', '', #176, .NOT_KNOWN. ) ;
#164 = CALENDAR_DATE ( 2023, 13, 2 ) ;
#165 = EDGE_LOOP ( 'NONE', ( #59, #105 ) ) ;
#166 = ORIENTED_EDGE ( 'NONE', *, *, #125, .F. ) ;
#167 = CC_DESIGN_APPROVAL ( #106, ( #73 ) ) ;
#168 = VECTOR ( 'NONE', #159, 1000.000000000000000 ) ;
#169 = CARTESIAN_POINT ( 'NONE',  ( -5.000000000000000000, 0.000000000000000000, 5.000000000000000000 ) ) ;
#170 = CARTESIAN_POINT ( 'NONE',  ( 0.000000000000000000, 0.000000000000000000, 200.0000000000000000 ) ) ;
#171 = DIRECTION ( 'NONE',  ( 1.000000000000000000, 0.000000000000000000, 0.000000000000000000 ) ) ;
#172 = EDGE_LOOP ( 'NONE', ( #249, #203 ) ) ;
#173 = CC_DESIGN_PERSON_AND_ORGANIZATION_ASSIGNMENT ( #201, #142, ( #176 ) ) ;
#174 = ORIENTED_EDGE ( 'NONE', *, *, #15, .F. ) ;
#175 = CC_DESIGN_PERSON_AND_ORGANIZATION_ASSIGNMENT ( #104, #185, ( #128 ) ) ;
#176 = PRODUCT ( 'bae3', 'bae3', '', ( #144 ) ) ;
#177 = DATE_TIME_ROLE ( 'creation_date' ) ;
#178 = AXIS2_PLACEMENT_3D ( 'NONE', #9, #67, #31 ) ;
#179 = DIRECTION ( 'NONE',  ( 1.000000000000000000, 0.000000000000000000, -0.000000000000000000 ) ) ;
#180 = DIRECTION ( 'NONE',  ( 1.000000000000000000, 0.000000000000000000, -0.000000000000000000 ) ) ;
#181 = APPROVAL_STATUS ( 'not_yet_approved' ) ;
#182 = DIRECTION ( 'NONE',  ( 1.000000000000000000, 0.000000000000000000, 0.000000000000000000 ) ) ;
#183 = AXIS2_PLACEMENT_3D ( 'NONE', #75, #154, #88 ) ;
#184 =( GEOMETRIC_REPRESENTATION_CONTEXT ( 3 ) GLOBAL_UNCERTAINTY_ASSIGNED_CONTEXT ( ( #5 ) ) GLOBAL_UNIT_ASSIGNED_CONTEXT ( ( #131, #60, #89 ) ) REPRESENTATION_CONTEXT ( 'NONE', 'WORKASPACE' ) );
#185 = PERSON_AND_ORGANIZATION_ROLE ( 'creator' ) ;
#186 = CIRCLE ( 'NONE', #208, 2.600000000000000089 ) ;
#187 = AXIS2_PLACEMENT_3D ( 'NONE', #170, #133, #179 ) ;
#188 = CC_DESIGN_APPROVAL ( #145, ( #163 ) ) ;
#189 = APPROVAL_DATE_TIME ( #108, #145 ) ;
#190 = EDGE_CURVE ( 'NONE', #95, #62, #129, .T. ) ;
#191 = VERTEX_POINT ( 'NONE', #237 ) ;
#192 = FACE_BOUND ( 'NONE', #248, .T. ) ;
#193 = FACE_OUTER_BOUND ( 'NONE', #172, .T. ) ;
#194 = DATE_AND_TIME ( #224, #23 ) ;
#195 = ORIENTED_EDGE ( 'NONE', *, *, #190, .T. ) ;
#196 = CARTESIAN_POINT ( 'NONE',  ( 5.000000000000000000, 6.123233995736766282E-16, 5.000000000000000000 ) ) ;
#197 = DIRECTION ( 'NONE',  ( -1.000000000000000000, 0.000000000000000000, 0.000000000000000000 ) ) ;
#198 = CARTESIAN_POINT ( 'NONE',  ( 5.000000000000000000, 6.123233995736766282E-16, 5.000000000000000000 ) ) ;
#199 = CARTESIAN_POINT ( 'NONE',  ( 0.000000000000000000, 0.000000000000000000, 0.000000000000000000 ) ) ;
#200 = CC_DESIGN_PERSON_AND_ORGANIZATION_ASSIGNMENT ( #8, #113, ( #163 ) ) ;
#201 = PERSON_AND_ORGANIZATION ( #44, #22 ) ;
#202 = CLOSED_SHELL ( 'NONE', ( #98, #136, #238, #28, #19, #218, #205 ) ) ;
#203 = ORIENTED_EDGE ( 'NONE', *, *, #51, .T. ) ;
#204 = ORIENTED_EDGE ( 'NONE', *, *, #228, .T. ) ;
#205 = ADVANCED_FACE ( 'NONE', ( #232 ), #87, .T. ) ;
#206 = VERTEX_POINT ( 'NONE', #247 ) ;
#207 = ORIENTED_EDGE ( 'NONE', *, *, #121, .F. ) ;
#208 = AXIS2_PLACEMENT_3D ( 'NONE', #255, #235, #182 ) ;
#209 = DIRECTION ( 'NONE',  ( 1.000000000000000000, 0.000000000000000000, 0.000000000000000000 ) ) ;
#210 = PERSON_AND_ORGANIZATION_ROLE ( 'design_supplier' ) ;
#211 = FACE_OUTER_BOUND ( 'NONE', #81, .T. ) ;
#212 = LINE ( 'NONE', #135, #155 ) ;
#213 = DIRECTION ( 'NONE',  ( -1.000000000000000000, 0.000000000000000000, 0.000000000000000000 ) ) ;
#214 = DIRECTION ( 'NONE',  ( -0.000000000000000000, -0.000000000000000000, -1.000000000000000000 ) ) ;
#215 = DIRECTION ( 'NONE',  ( 1.000000000000000000, 0.000000000000000000, 0.000000000000000000 ) ) ;
#216 = AXIS2_PLACEMENT_3D ( 'NONE', #199, #219, #43 ) ;
#217 = CYLINDRICAL_SURFACE ( 'NONE', #56, 5.000000000000000000 ) ;
#218 = ADVANCED_FACE ( 'NONE', ( #211 ), #38, .T. ) ;
#219 = DIRECTION ( 'NONE',  ( 0.000000000000000000, 0.000000000000000000, 1.000000000000000000 ) ) ;
#220 = ORIENTED_EDGE ( 'NONE', *, *, #121, .T. ) ;
#221 = EDGE_CURVE ( 'NONE', #52, #206, #76, .T. ) ;
#222 = EDGE_LOOP ( 'NONE', ( #245, #27 ) ) ;
#223 = CC_DESIGN_SECURITY_CLASSIFICATION ( #73, ( #163 ) ) ;
#224 = CALENDAR_DATE ( 2023, 13, 2 ) ;
#225 = AXIS2_PLACEMENT_3D ( 'NONE', #16, #140, #92 ) ;
#226 = APPROVAL_ROLE ( '' ) ;
#227 = EDGE_LOOP ( 'NONE', ( #80, #127, #103, #250 ) ) ;
#228 = EDGE_CURVE ( 'NONE', #149, #52, #229, .T. ) ;
#229 = LINE ( 'NONE', #196, #251 ) ;
#230 = DESIGN_CONTEXT ( 'detailed design', #6, 'design' ) ;
#231 = FACE_OUTER_BOUND ( 'NONE', #165, .T. ) ;
#232 = FACE_OUTER_BOUND ( 'NONE', #222, .T. ) ;
#233 = CARTESIAN_POINT ( 'NONE',  ( 2.600000000000000089, 3.184081677783118191E-16, 5.000000000000000000 ) ) ;
#234 = DIRECTION ( 'NONE',  ( 0.000000000000000000, 0.000000000000000000, 1.000000000000000000 ) ) ;
#235 = DIRECTION ( 'NONE',  ( 0.000000000000000000, 0.000000000000000000, 1.000000000000000000 ) ) ;
#236 = LINE ( 'NONE', #253, #168 ) ;
#237 = CARTESIAN_POINT ( 'NONE',  ( -2.600000000000000089, 0.000000000000000000, 200.0000000000000000 ) ) ;
#238 = ADVANCED_FACE ( 'NONE', ( #71 ), #53, .T. ) ;
#239 = APPROVAL_STATUS ( 'not_yet_approved' ) ;
#240 = ORIENTED_EDGE ( 'NONE', *, *, #21, .F. ) ;
#241 = PRODUCT_RELATED_PRODUCT_CATEGORY ( 'detail', '', ( #176 ) ) ;
#242 = CC_DESIGN_PERSON_AND_ORGANIZATION_ASSIGNMENT ( #143, #141, ( #73 ) ) ;
#243 = APPROVAL_DATE_TIME ( #2, #106 ) ;
#244 = CC_DESIGN_DATE_AND_TIME_ASSIGNMENT ( #194, #177, ( #128 ) ) ;
#245 = ORIENTED_EDGE ( 'NONE', *, *, #125, .T. ) ;
#246 = LINE ( 'NONE', #86, #91 ) ;
#247 = CARTESIAN_POINT ( 'NONE',  ( -5.000000000000000000, 0.000000000000000000, 0.000000000000000000 ) ) ;
#248 = EDGE_LOOP ( 'NONE', ( #174, #107 ) ) ;
#249 = ORIENTED_EDGE ( 'NONE', *, *, #42, .T. ) ;
#250 = ORIENTED_EDGE ( 'NONE', *, *, #70, .T. ) ;
#251 = VECTOR ( 'NONE', #40, 1000.000000000000000 ) ;
#252 = PLANE ( 'NONE',  #123 ) ;
#253 = CARTESIAN_POINT ( 'NONE',  ( 2.600000000000000089, 3.184081677783118191E-16, 200.0000000000000000 ) ) ;
#254 = AXIS2_PLACEMENT_3D ( 'NONE', #132, #234, #209 ) ;
#255 = CARTESIAN_POINT ( 'NONE',  ( 0.000000000000000000, 0.000000000000000000, 200.0000000000000000 ) ) ;
ENDSEC;
END-ISO-10303-21;
