ISO-10303-21;
HEADER;
FILE_DESCRIPTION (( 'STEP AP203' ),
    '1' );
FILE_NAME ('11ff.STEP',
    '2023-02-13T09:43:50',
    ( '' ),
    ( '' ),
    'SwSTEP 2.0',
    'SolidWorks 2019',
    '' );
FILE_SCHEMA (( 'CONFIG_CONTROL_DESIGN' ));
ENDSEC;

DATA;
#1 = CIRCLE ( 'NONE', #35, 8.000000000000000000 ) ;
#2 = ORIENTED_EDGE ( 'NONE', *, *, #101, .F. ) ;
#3 = VERTEX_POINT ( 'NONE', #227 ) ;
#4 = DATE_AND_TIME ( #78, #56 ) ;
#5 = CC_DESIGN_PERSON_AND_ORGANIZATION_ASSIGNMENT ( #179, #97, ( #163 ) ) ;
#6 = ORIENTED_EDGE ( 'NONE', *, *, #69, .T. ) ;
#7 = PERSON_AND_ORGANIZATION_ROLE ( 'design_owner' ) ;
#8 = LINE ( 'NONE', #122, #151 ) ;
#9 = PERSON_AND_ORGANIZATION ( #79, #49 ) ;
#10 = DIRECTION ( 'NONE',  ( -1.000000000000000000, 0.000000000000000000, 0.000000000000000000 ) ) ;
#11 = DIRECTION ( 'NONE',  ( -1.000000000000000000, 0.000000000000000000, 0.000000000000000000 ) ) ;
#12 = CARTESIAN_POINT ( 'NONE',  ( 0.000000000000000000, 0.000000000000000000, 7.000000000000000000 ) ) ;
#13 = CARTESIAN_POINT ( 'NONE',  ( 0.000000000000000000, 0.000000000000000000, 7.000000000000000000 ) ) ;
#14 = LOCAL_TIME ( 10, 43, 50.00000000000000000, #95 ) ;
#15 = APPLICATION_CONTEXT ( 'configuration controlled 3d designs of mechanical parts and assemblies' ) ;
#16 = CARTESIAN_POINT ( 'NONE',  ( 12.00000000000000178, 1.469576158976824144E-15, 0.000000000000000000 ) ) ;
#17 = CARTESIAN_POINT ( 'NONE',  ( 8.000000000000000000, 9.797174393178825657E-16, 315.0000000000000000 ) ) ;
#18 = CARTESIAN_POINT ( 'NONE',  ( -8.000000000000000000, 0.000000000000000000, 315.0000000000000000 ) ) ;
#19 = CC_DESIGN_SECURITY_CLASSIFICATION ( #120, ( #163 ) ) ;
#20 = CARTESIAN_POINT ( 'NONE',  ( -8.000000000000000000, 0.000000000000000000, 7.000000000000000000 ) ) ;
#21 = PRODUCT ( '11ff', '11ff', '', ( #231 ) ) ;
#22 = CLOSED_SHELL ( 'NONE', ( #36, #126, #23, #247, #193, #214, #218 ) ) ;
#23 = ADVANCED_FACE ( 'NONE', ( #222 ), #177, .T. ) ;
#24 = EDGE_CURVE ( 'NONE', #92, #241, #8, .T. ) ;
#25 = APPROVAL_PERSON_ORGANIZATION ( #102, #254, #28 ) ;
#26 = COORDINATED_UNIVERSAL_TIME_OFFSET ( 1, 0, .AHEAD. ) ;
#27 = CARTESIAN_POINT ( 'NONE',  ( 8.000000000000000000, 9.797174393178825657E-16, 315.0000000000000000 ) ) ;
#28 = APPROVAL_ROLE ( '' ) ;
#29 = DIRECTION ( 'NONE',  ( -0.000000000000000000, -0.000000000000000000, -1.000000000000000000 ) ) ;
#30 = DATE_AND_TIME ( #160, #14 ) ;
#31 = AXIS2_PLACEMENT_3D ( 'NONE', #116, #62, #143 ) ;
#32 = ORIENTED_EDGE ( 'NONE', *, *, #41, .F. ) ;
#33 = DATE_AND_TIME ( #80, #87 ) ;
#34 = CC_DESIGN_DATE_AND_TIME_ASSIGNMENT ( #46, #221, ( #120 ) ) ;
#35 = AXIS2_PLACEMENT_3D ( 'NONE', #164, #86, #251 ) ;
#36 = ADVANCED_FACE ( 'NONE', ( #82 ), #100, .T. ) ;
#37 = DIRECTION ( 'NONE',  ( 1.000000000000000000, 0.000000000000000000, -0.000000000000000000 ) ) ;
#38 = EDGE_LOOP ( 'NONE', ( #32, #40 ) ) ;
#39 = ORIENTED_EDGE ( 'NONE', *, *, #239, .F. ) ;
#40 = ORIENTED_EDGE ( 'NONE', *, *, #64, .F. ) ;
#41 = EDGE_CURVE ( 'NONE', #133, #51, #53, .T. ) ;
#42 = CIRCLE ( 'NONE', #188, 8.000000000000000000 ) ;
#43 = PERSON_AND_ORGANIZATION ( #79, #49 ) ;
#44 = CARTESIAN_POINT ( 'NONE',  ( -12.00000000000000178, 0.000000000000000000, 7.000000000000000000 ) ) ;
#45 = CARTESIAN_POINT ( 'NONE',  ( -12.00000000000000178, 0.000000000000000000, 0.000000000000000000 ) ) ;
#46 = DATE_AND_TIME ( #77, #181 ) ;
#47 = DIRECTION ( 'NONE',  ( -1.000000000000000000, 0.000000000000000000, 0.000000000000000000 ) ) ;
#48 = PERSON_AND_ORGANIZATION_ROLE ( 'classification_officer' ) ;
#49 = ORGANIZATION ( 'NEURÈENÝ', 'NEURÈENÝ', '' ) ;
#50 = ORIENTED_EDGE ( 'NONE', *, *, #197, .T. ) ;
#51 = VERTEX_POINT ( 'NONE', #162 ) ;
#52 = DIRECTION ( 'NONE',  ( 1.000000000000000000, 0.000000000000000000, 0.000000000000000000 ) ) ;
#53 = CIRCLE ( 'NONE', #166, 8.000000000000000000 ) ;
#54 = DIRECTION ( 'NONE',  ( -0.000000000000000000, -0.000000000000000000, -1.000000000000000000 ) ) ;
#55 = DIRECTION ( 'NONE',  ( 0.000000000000000000, 0.000000000000000000, 1.000000000000000000 ) ) ;
#56 = LOCAL_TIME ( 10, 43, 50.00000000000000000, #114 ) ;
#57 = ORIENTED_EDGE ( 'NONE', *, *, #223, .T. ) ;
#58 = APPROVAL_ROLE ( '' ) ;
#59 = ORIENTED_EDGE ( 'NONE', *, *, #202, .F. ) ;
#60 = EDGE_CURVE ( 'NONE', #93, #241, #90, .T. ) ;
#61 = ORIENTED_EDGE ( 'NONE', *, *, #197, .F. ) ;
#62 = DIRECTION ( 'NONE',  ( 0.000000000000000000, 0.000000000000000000, 1.000000000000000000 ) ) ;
#63 = CARTESIAN_POINT ( 'NONE',  ( 0.000000000000000000, 0.000000000000000000, 7.000000000000000000 ) ) ;
#64 = EDGE_CURVE ( 'NONE', #51, #133, #42, .T. ) ;
#65 = CARTESIAN_POINT ( 'NONE',  ( -8.000000000000000000, 0.000000000000000000, 315.0000000000000000 ) ) ;
#66 = PLANE ( 'NONE',  #240 ) ;
#67 = AXIS2_PLACEMENT_3D ( 'NONE', #203, #29, #10 ) ;
#68 = PLANE ( 'NONE',  #190 ) ;
#69 = EDGE_CURVE ( 'NONE', #241, #93, #72, .T. ) ;
#70 = CARTESIAN_POINT ( 'NONE',  ( 0.000000000000000000, 0.000000000000000000, 315.0000000000000000 ) ) ;
#71 = CYLINDRICAL_SURFACE ( 'NONE', #91, 8.000000000000000000 ) ;
#72 = CIRCLE ( 'NONE', #170, 12.00000000000000178 ) ;
#73 = CC_DESIGN_PERSON_AND_ORGANIZATION_ASSIGNMENT ( #183, #176, ( #163 ) ) ;
#74 =( NAMED_UNIT ( * ) SI_UNIT ( $, .STERADIAN. ) SOLID_ANGLE_UNIT ( ) );
#75 = EDGE_LOOP ( 'NONE', ( #174, #220, #109, #134 ) ) ;
#76 = CC_DESIGN_APPROVAL ( #89, ( #163 ) ) ;
#77 = CALENDAR_DATE ( 2023, 13, 2 ) ;
#78 = CALENDAR_DATE ( 2023, 13, 2 ) ;
#79 = PERSON ( 'NEURÈENÝ', 'NEURÈENÝ', 'NEURÈENÝ', ('NEURÈENÝ'), ('NEURÈENÝ'), ('NEURÈENÝ') ) ;
#80 = CALENDAR_DATE ( 2023, 13, 2 ) ;
#81 = APPROVAL_STATUS ( 'not_yet_approved' ) ;
#82 = FACE_OUTER_BOUND ( 'NONE', #103, .T. ) ;
#83 = AXIS2_PLACEMENT_3D ( 'NONE', #124, #105, #191 ) ;
#84 = ORIENTED_EDGE ( 'NONE', *, *, #180, .T. ) ;
#85 = APPLICATION_CONTEXT ( 'configuration controlled 3d designs of mechanical parts and assemblies' ) ;
#86 = DIRECTION ( 'NONE',  ( 0.000000000000000000, 0.000000000000000000, 1.000000000000000000 ) ) ;
#87 = LOCAL_TIME ( 10, 43, 50.00000000000000000, #154 ) ;
#88 = LINE ( 'NONE', #17, #178 ) ;
#89 = APPROVAL ( #81, 'NEURÈENÝ' ) ;
#90 = CIRCLE ( 'NONE', #152, 12.00000000000000178 ) ;
#91 = AXIS2_PLACEMENT_3D ( 'NONE', #70, #54, #145 ) ;
#92 = VERTEX_POINT ( 'NONE', #201 ) ;
#93 = VERTEX_POINT ( 'NONE', #45 ) ;
#94 = PERSON_AND_ORGANIZATION ( #79, #49 ) ;
#95 = COORDINATED_UNIVERSAL_TIME_OFFSET ( 1, 0, .AHEAD. ) ;
#96 = FACE_OUTER_BOUND ( 'NONE', #104, .T. ) ;
#97 = PERSON_AND_ORGANIZATION_ROLE ( 'creator' ) ;
#98 = DIRECTION ( 'NONE',  ( 1.000000000000000000, 0.000000000000000000, 0.000000000000000000 ) ) ;
#99 = PERSON_AND_ORGANIZATION_ROLE ( 'creator' ) ;
#100 = CYLINDRICAL_SURFACE ( 'NONE', #125, 8.000000000000000000 ) ;
#101 = EDGE_CURVE ( 'NONE', #3, #93, #136, .T. ) ;
#102 = PERSON_AND_ORGANIZATION ( #79, #49 ) ;
#103 = EDGE_LOOP ( 'NONE', ( #61, #207, #130, #59 ) ) ;
#104 = EDGE_LOOP ( 'NONE', ( #39, #155, #6, #2 ) ) ;
#105 = DIRECTION ( 'NONE',  ( 0.000000000000000000, 0.000000000000000000, 1.000000000000000000 ) ) ;
#106 =( LENGTH_UNIT ( ) NAMED_UNIT ( * ) SI_UNIT ( .MILLI., .METRE. ) );
#107 = DIRECTION ( 'NONE',  ( 1.000000000000000000, 0.000000000000000000, 0.000000000000000000 ) ) ;
#108 = DIRECTION ( 'NONE',  ( 0.000000000000000000, 0.000000000000000000, 1.000000000000000000 ) ) ;
#109 = ORIENTED_EDGE ( 'NONE', *, *, #101, .T. ) ;
#110 = PRODUCT_RELATED_PRODUCT_CATEGORY ( 'detail', '', ( #21 ) ) ;
#111 = VERTEX_POINT ( 'NONE', #27 ) ;
#112 = EDGE_LOOP ( 'NONE', ( #84, #219 ) ) ;
#113 = PRODUCT_DEFINITION_SHAPE ( 'NONE', 'NONE',  #195 ) ;
#114 = COORDINATED_UNIVERSAL_TIME_OFFSET ( 1, 0, .AHEAD. ) ;
#115 = DIRECTION ( 'NONE',  ( -0.000000000000000000, -0.000000000000000000, -1.000000000000000000 ) ) ;
#116 = CARTESIAN_POINT ( 'NONE',  ( 0.000000000000000000, 0.000000000000000000, 0.000000000000000000 ) ) ;
#117 = CYLINDRICAL_SURFACE ( 'NONE', #67, 12.00000000000000178 ) ;
#118 = DATE_AND_TIME ( #206, #167 ) ;
#119 = DIRECTION ( 'NONE',  ( -0.000000000000000000, -0.000000000000000000, -1.000000000000000000 ) ) ;
#120 = SECURITY_CLASSIFICATION ( '', '', #224 ) ;
#121 = APPROVAL_STATUS ( 'not_yet_approved' ) ;
#122 = CARTESIAN_POINT ( 'NONE',  ( 12.00000000000000178, 1.469576158976824144E-15, 7.000000000000000000 ) ) ;
#123 = DIRECTION ( 'NONE',  ( 1.000000000000000000, 0.000000000000000000, 0.000000000000000000 ) ) ;
#124 = CARTESIAN_POINT ( 'NONE',  ( 0.000000000000000000, 0.000000000000000000, 7.000000000000000000 ) ) ;
#125 = AXIS2_PLACEMENT_3D ( 'NONE', #157, #184, #11 ) ;
#126 = ADVANCED_FACE ( 'NONE', ( #96 ), #117, .T. ) ;
#127 =( GEOMETRIC_REPRESENTATION_CONTEXT ( 3 ) GLOBAL_UNCERTAINTY_ASSIGNED_CONTEXT ( ( #141 ) ) GLOBAL_UNIT_ASSIGNED_CONTEXT ( ( #106, #238, #74 ) ) REPRESENTATION_CONTEXT ( 'NONE', 'WORKASPACE' ) );
#128 = DIRECTION ( 'NONE',  ( 0.000000000000000000, 0.000000000000000000, 1.000000000000000000 ) ) ;
#129 = PLANE ( 'NONE',  #210 ) ;
#130 = ORIENTED_EDGE ( 'NONE', *, *, #64, .T. ) ;
#131 = AXIS2_PLACEMENT_3D ( 'NONE', #236, #235, #107 ) ;
#132 = ADVANCED_BREP_SHAPE_REPRESENTATION ( '11ff', ( #229, #31 ), #127 ) ;
#133 = VERTEX_POINT ( 'NONE', #20 ) ;
#134 = ORIENTED_EDGE ( 'NONE', *, *, #60, .T. ) ;
#135 = APPROVAL_ROLE ( '' ) ;
#136 = LINE ( 'NONE', #44, #148 ) ;
#137 = APPROVAL_PERSON_ORGANIZATION ( #43, #89, #135 ) ;
#138 = APPLICATION_PROTOCOL_DEFINITION ( 'international standard', 'config_control_design', 1994, #15 ) ;
#139 = APPLICATION_PROTOCOL_DEFINITION ( 'international standard', 'config_control_design', 1994, #85 ) ;
#140 = ORIENTED_EDGE ( 'NONE', *, *, #60, .F. ) ;
#141 = UNCERTAINTY_MEASURE_WITH_UNIT (LENGTH_MEASURE( 1.000000000000000082E-05 ), #106, 'distance_accuracy_value', 'NONE');
#142 = DIRECTION ( 'NONE',  ( 1.000000000000000000, 0.000000000000000000, 0.000000000000000000 ) ) ;
#143 = DIRECTION ( 'NONE',  ( 1.000000000000000000, 0.000000000000000000, 0.000000000000000000 ) ) ;
#144 = CARTESIAN_POINT ( 'NONE',  ( 0.000000000000000000, 0.000000000000000000, 0.000000000000000000 ) ) ;
#145 = DIRECTION ( 'NONE',  ( -1.000000000000000000, 0.000000000000000000, 0.000000000000000000 ) ) ;
#146 = CC_DESIGN_PERSON_AND_ORGANIZATION_ASSIGNMENT ( #9, #48, ( #120 ) ) ;
#147 = CARTESIAN_POINT ( 'NONE',  ( 0.000000000000000000, 0.000000000000000000, 7.000000000000000000 ) ) ;
#148 = VECTOR ( 'NONE', #115, 1000.000000000000000 ) ;
#149 = CC_DESIGN_PERSON_AND_ORGANIZATION_ASSIGNMENT ( #94, #99, ( #195 ) ) ;
#150 = FACE_OUTER_BOUND ( 'NONE', #246, .T. ) ;
#151 = VECTOR ( 'NONE', #119, 1000.000000000000000 ) ;
#152 = AXIS2_PLACEMENT_3D ( 'NONE', #249, #250, #142 ) ;
#153 = ORIENTED_EDGE ( 'NONE', *, *, #41, .T. ) ;
#154 = COORDINATED_UNIVERSAL_TIME_OFFSET ( 1, 0, .AHEAD. ) ;
#155 = ORIENTED_EDGE ( 'NONE', *, *, #24, .T. ) ;
#156 = COORDINATED_UNIVERSAL_TIME_OFFSET ( 1, 0, .AHEAD. ) ;
#157 = CARTESIAN_POINT ( 'NONE',  ( 0.000000000000000000, 0.000000000000000000, 315.0000000000000000 ) ) ;
#158 = CIRCLE ( 'NONE', #253, 8.000000000000000000 ) ;
#159 = EDGE_CURVE ( 'NONE', #111, #51, #88, .T. ) ;
#160 = CALENDAR_DATE ( 2023, 13, 2 ) ;
#161 = DIRECTION ( 'NONE',  ( -0.000000000000000000, -0.000000000000000000, -1.000000000000000000 ) ) ;
#162 = CARTESIAN_POINT ( 'NONE',  ( 8.000000000000000000, 9.797174393178825657E-16, 7.000000000000000000 ) ) ;
#163 = PRODUCT_DEFINITION_FORMATION_WITH_SPECIFIED_SOURCE ( 'LIBOVOLNÝ', '', #21, .NOT_KNOWN. ) ;
#164 = CARTESIAN_POINT ( 'NONE',  ( 0.000000000000000000, 0.000000000000000000, 315.0000000000000000 ) ) ;
#165 = FACE_BOUND ( 'NONE', #38, .T. ) ;
#166 = AXIS2_PLACEMENT_3D ( 'NONE', #13, #225, #98 ) ;
#167 = LOCAL_TIME ( 10, 43, 50.00000000000000000, #26 ) ;
#168 = DIRECTION ( 'NONE',  ( -0.000000000000000000, -0.000000000000000000, -1.000000000000000000 ) ) ;
#169 = FACE_OUTER_BOUND ( 'NONE', #204, .T. ) ;
#170 = AXIS2_PLACEMENT_3D ( 'NONE', #144, #243, #123 ) ;
#171 = VECTOR ( 'NONE', #168, 1000.000000000000000 ) ;
#172 = CC_DESIGN_APPROVAL ( #254, ( #195 ) ) ;
#173 = CC_DESIGN_PERSON_AND_ORGANIZATION_ASSIGNMENT ( #226, #7, ( #21 ) ) ;
#174 = ORIENTED_EDGE ( 'NONE', *, *, #24, .F. ) ;
#175 = APPROVAL_DATE_TIME ( #118, #254 ) ;
#176 = PERSON_AND_ORGANIZATION_ROLE ( 'design_supplier' ) ;
#177 = CYLINDRICAL_SURFACE ( 'NONE', #199, 12.00000000000000178 ) ;
#178 = VECTOR ( 'NONE', #212, 1000.000000000000000 ) ;
#179 = PERSON_AND_ORGANIZATION ( #79, #49 ) ;
#180 = EDGE_CURVE ( 'NONE', #3, #92, #216, .T. ) ;
#181 = LOCAL_TIME ( 10, 43, 50.00000000000000000, #156 ) ;
#182 = DESIGN_CONTEXT ( 'detailed design', #15, 'design' ) ;
#183 = PERSON_AND_ORGANIZATION ( #79, #49 ) ;
#184 = DIRECTION ( 'NONE',  ( -0.000000000000000000, -0.000000000000000000, -1.000000000000000000 ) ) ;
#185 = APPROVAL_STATUS ( 'not_yet_approved' ) ;
#186 = ORIENTED_EDGE ( 'NONE', *, *, #202, .T. ) ;
#187 = CC_DESIGN_DATE_AND_TIME_ASSIGNMENT ( #30, #228, ( #195 ) ) ;
#188 = AXIS2_PLACEMENT_3D ( 'NONE', #63, #230, #208 ) ;
#189 = ORIENTED_EDGE ( 'NONE', *, *, #223, .F. ) ;
#190 = AXIS2_PLACEMENT_3D ( 'NONE', #194, #128, #233 ) ;
#191 = DIRECTION ( 'NONE',  ( 1.000000000000000000, 0.000000000000000000, 0.000000000000000000 ) ) ;
#192 = LINE ( 'NONE', #18, #171 ) ;
#193 = ADVANCED_FACE ( 'NONE', ( #255 ), #68, .F. ) ;
#194 = CARTESIAN_POINT ( 'NONE',  ( 0.000000000000000000, 0.000000000000000000, 0.000000000000000000 ) ) ;
#195 = PRODUCT_DEFINITION ( 'NEZNÁMÝ', '', #163, #182 ) ;
#196 = ORIENTED_EDGE ( 'NONE', *, *, #159, .F. ) ;
#197 = EDGE_CURVE ( 'NONE', #111, #198, #1, .T. ) ;
#198 = VERTEX_POINT ( 'NONE', #65 ) ;
#199 = AXIS2_PLACEMENT_3D ( 'NONE', #12, #161, #47 ) ;
#200 = APPROVAL_DATE_TIME ( #33, #244 ) ;
#201 = CARTESIAN_POINT ( 'NONE',  ( 12.00000000000000178, 1.469576158976824144E-15, 7.000000000000000000 ) ) ;
#202 = EDGE_CURVE ( 'NONE', #198, #133, #192, .T. ) ;
#203 = CARTESIAN_POINT ( 'NONE',  ( 0.000000000000000000, 0.000000000000000000, 7.000000000000000000 ) ) ;
#204 = EDGE_LOOP ( 'NONE', ( #196, #189, #186, #153 ) ) ;
#205 = CC_DESIGN_APPROVAL ( #244, ( #120 ) ) ;
#206 = CALENDAR_DATE ( 2023, 13, 2 ) ;
#207 = ORIENTED_EDGE ( 'NONE', *, *, #159, .T. ) ;
#208 = DIRECTION ( 'NONE',  ( 1.000000000000000000, 0.000000000000000000, 0.000000000000000000 ) ) ;
#209 = CARTESIAN_POINT ( 'NONE',  ( 0.000000000000000000, 0.000000000000000000, 315.0000000000000000 ) ) ;
#210 = AXIS2_PLACEMENT_3D ( 'NONE', #213, #55, #37 ) ;
#211 = DIRECTION ( 'NONE',  ( 1.000000000000000000, 0.000000000000000000, -0.000000000000000000 ) ) ;
#212 = DIRECTION ( 'NONE',  ( -0.000000000000000000, -0.000000000000000000, -1.000000000000000000 ) ) ;
#213 = CARTESIAN_POINT ( 'NONE',  ( 0.000000000000000000, 0.000000000000000000, 315.0000000000000000 ) ) ;
#214 = ADVANCED_FACE ( 'NONE', ( #169 ), #71, .T. ) ;
#215 = ORIENTED_EDGE ( 'NONE', *, *, #69, .F. ) ;
#216 = CIRCLE ( 'NONE', #131, 12.00000000000000178 ) ;
#217 = CIRCLE ( 'NONE', #83, 12.00000000000000178 ) ;
#218 = ADVANCED_FACE ( 'NONE', ( #150 ), #129, .T. ) ;
#219 = ORIENTED_EDGE ( 'NONE', *, *, #239, .T. ) ;
#220 = ORIENTED_EDGE ( 'NONE', *, *, #180, .F. ) ;
#221 = DATE_TIME_ROLE ( 'classification_date' ) ;
#222 = FACE_OUTER_BOUND ( 'NONE', #75, .T. ) ;
#223 = EDGE_CURVE ( 'NONE', #198, #111, #158, .T. ) ;
#224 = SECURITY_CLASSIFICATION_LEVEL ( 'unclassified' ) ;
#225 = DIRECTION ( 'NONE',  ( 0.000000000000000000, 0.000000000000000000, 1.000000000000000000 ) ) ;
#226 = PERSON_AND_ORGANIZATION ( #79, #49 ) ;
#227 = CARTESIAN_POINT ( 'NONE',  ( -12.00000000000000178, 0.000000000000000000, 7.000000000000000000 ) ) ;
#228 = DATE_TIME_ROLE ( 'creation_date' ) ;
#229 = MANIFOLD_SOLID_BREP ( 'Pøidat vysunutím3', #22 ) ;
#230 = DIRECTION ( 'NONE',  ( 0.000000000000000000, 0.000000000000000000, 1.000000000000000000 ) ) ;
#231 = MECHANICAL_CONTEXT ( 'NONE', #85, 'mechanical' ) ;
#232 = EDGE_LOOP ( 'NONE', ( #140, #215 ) ) ;
#233 = DIRECTION ( 'NONE',  ( 1.000000000000000000, 0.000000000000000000, -0.000000000000000000 ) ) ;
#234 = DIRECTION ( 'NONE',  ( 0.000000000000000000, 0.000000000000000000, 1.000000000000000000 ) ) ;
#235 = DIRECTION ( 'NONE',  ( 0.000000000000000000, 0.000000000000000000, 1.000000000000000000 ) ) ;
#236 = CARTESIAN_POINT ( 'NONE',  ( 0.000000000000000000, 0.000000000000000000, 7.000000000000000000 ) ) ;
#237 = APPROVAL_PERSON_ORGANIZATION ( #245, #244, #58 ) ;
#238 =( NAMED_UNIT ( * ) PLANE_ANGLE_UNIT ( ) SI_UNIT ( $, .RADIAN. ) );
#239 = EDGE_CURVE ( 'NONE', #92, #3, #217, .T. ) ;
#240 = AXIS2_PLACEMENT_3D ( 'NONE', #147, #234, #211 ) ;
#241 = VERTEX_POINT ( 'NONE', #16 ) ;
#242 = APPROVAL_DATE_TIME ( #4, #89 ) ;
#243 = DIRECTION ( 'NONE',  ( 0.000000000000000000, 0.000000000000000000, 1.000000000000000000 ) ) ;
#244 = APPROVAL ( #185, 'NEURÈENÝ' ) ;
#245 = PERSON_AND_ORGANIZATION ( #79, #49 ) ;
#246 = EDGE_LOOP ( 'NONE', ( #57, #50 ) ) ;
#247 = ADVANCED_FACE ( 'NONE', ( #165, #252 ), #66, .T. ) ;
#248 = SHAPE_DEFINITION_REPRESENTATION ( #113, #132 ) ;
#249 = CARTESIAN_POINT ( 'NONE',  ( 0.000000000000000000, 0.000000000000000000, 0.000000000000000000 ) ) ;
#250 = DIRECTION ( 'NONE',  ( 0.000000000000000000, 0.000000000000000000, 1.000000000000000000 ) ) ;
#251 = DIRECTION ( 'NONE',  ( 1.000000000000000000, 0.000000000000000000, 0.000000000000000000 ) ) ;
#252 = FACE_OUTER_BOUND ( 'NONE', #112, .T. ) ;
#253 = AXIS2_PLACEMENT_3D ( 'NONE', #209, #108, #52 ) ;
#254 = APPROVAL ( #121, 'NEURÈENÝ' ) ;
#255 = FACE_OUTER_BOUND ( 'NONE', #232, .T. ) ;
ENDSEC;
END-ISO-10303-21;
