ISO-10303-21;
HEADER;
FILE_DESCRIPTION (( 'STEP AP203' ),
    '1' );
FILE_NAME ('023e.STEP',
    '2023-02-13T11:32:31',
    ( '' ),
    ( '' ),
    'SwSTEP 2.0',
    'SolidWorks 2019',
    '' );
FILE_SCHEMA (( 'CONFIG_CONTROL_DESIGN' ));
ENDSEC;

DATA;
#1 =( NAMED_UNIT ( * ) SI_UNIT ( $, .STERADIAN. ) SOLID_ANGLE_UNIT ( ) );
#2 = FACE_OUTER_BOUND ( 'NONE', #9, .T. ) ;
#3 = DIRECTION ( 'NONE',  ( 0.000000000000000000, 0.000000000000000000, 1.000000000000000000 ) ) ;
#4 = APPROVAL_DATE_TIME ( #185, #129 ) ;
#5 = ADVANCED_FACE ( 'NONE', ( #132, #99 ), #246, .T. ) ;
#6 = PERSON_AND_ORGANIZATION ( #66, #32 ) ;
#7 = ORIENTED_EDGE ( 'NONE', *, *, #189, .T. ) ;
#8 = PERSON_AND_ORGANIZATION ( #66, #32 ) ;
#9 = EDGE_LOOP ( 'NONE', ( #91, #172 ) ) ;
#10 = DATE_TIME_ROLE ( 'classification_date' ) ;
#11 = LOCAL_TIME ( 12, 32, 31.00000000000000000, #29 ) ;
#12 = VERTEX_POINT ( 'NONE', #79 ) ;
#13 = VERTEX_POINT ( 'NONE', #205 ) ;
#14 = DIRECTION ( 'NONE',  ( -1.000000000000000000, 0.000000000000000000, 0.000000000000000000 ) ) ;
#15 = PLANE ( 'NONE',  #20 ) ;
#16 = MANIFOLD_SOLID_BREP ( 'Pøidat vysunutím3', #243 ) ;
#17 = EDGE_CURVE ( 'NONE', #223, #19, #133, .T. ) ;
#18 = APPROVAL_ROLE ( '' ) ;
#19 = VERTEX_POINT ( 'NONE', #171 ) ;
#20 = AXIS2_PLACEMENT_3D ( 'NONE', #248, #151, #58 ) ;
#21 = VERTEX_POINT ( 'NONE', #154 ) ;
#22 = EDGE_CURVE ( 'NONE', #76, #165, #40, .T. ) ;
#23 = DIRECTION ( 'NONE',  ( -0.000000000000000000, -0.000000000000000000, -1.000000000000000000 ) ) ;
#24 = CARTESIAN_POINT ( 'NONE',  ( -6.000000000000000888, 0.000000000000000000, 160.0000000000000000 ) ) ;
#25 = CIRCLE ( 'NONE', #195, 9.000000000000000000 ) ;
#26 = EDGE_CURVE ( 'NONE', #13, #72, #141, .T. ) ;
#27 = DIRECTION ( 'NONE',  ( 0.000000000000000000, 0.000000000000000000, 1.000000000000000000 ) ) ;
#28 = DIRECTION ( 'NONE',  ( 1.000000000000000000, 0.000000000000000000, 0.000000000000000000 ) ) ;
#29 = COORDINATED_UNIVERSAL_TIME_OFFSET ( 1, 0, .AHEAD. ) ;
#30 = EDGE_LOOP ( 'NONE', ( #39, #182 ) ) ;
#31 = ADVANCED_FACE ( 'NONE', ( #135 ), #203, .T. ) ;
#32 = ORGANIZATION ( 'NEURÈENÝ', 'NEURÈENÝ', '' ) ;
#33 = APPROVAL_STATUS ( 'not_yet_approved' ) ;
#34 = PERSON_AND_ORGANIZATION ( #66, #32 ) ;
#35 = ORIENTED_EDGE ( 'NONE', *, *, #104, .T. ) ;
#36 = AXIS2_PLACEMENT_3D ( 'NONE', #61, #155, #207 ) ;
#37 = CIRCLE ( 'NONE', #157, 6.000000000000000888 ) ;
#38 = CC_DESIGN_DATE_AND_TIME_ASSIGNMENT ( #111, #222, ( #224 ) ) ;
#39 = ORIENTED_EDGE ( 'NONE', *, *, #244, .F. ) ;
#40 = LINE ( 'NONE', #130, #209 ) ;
#41 = CIRCLE ( 'NONE', #148, 9.000000000000000000 ) ;
#42 = CARTESIAN_POINT ( 'NONE',  ( 0.000000000000000000, 0.000000000000000000, 160.0000000000000000 ) ) ;
#43 = DIRECTION ( 'NONE',  ( 1.000000000000000000, 0.000000000000000000, 0.000000000000000000 ) ) ;
#44 = PRODUCT_DEFINITION_SHAPE ( 'NONE', 'NONE',  #224 ) ;
#45 = DIRECTION ( 'NONE',  ( -1.000000000000000000, 0.000000000000000000, 0.000000000000000000 ) ) ;
#46 = DIRECTION ( 'NONE',  ( 1.000000000000000000, 0.000000000000000000, -0.000000000000000000 ) ) ;
#47 = DIRECTION ( 'NONE',  ( -1.000000000000000000, 0.000000000000000000, 0.000000000000000000 ) ) ;
#48 = DIRECTION ( 'NONE',  ( 0.000000000000000000, 0.000000000000000000, 1.000000000000000000 ) ) ;
#49 =( NAMED_UNIT ( * ) PLANE_ANGLE_UNIT ( ) SI_UNIT ( $, .RADIAN. ) );
#50 = AXIS2_PLACEMENT_3D ( 'NONE', #102, #226, #43 ) ;
#51 = CALENDAR_DATE ( 2023, 13, 2 ) ;
#52 = ORIENTED_EDGE ( 'NONE', *, *, #22, .F. ) ;
#53 = PERSON_AND_ORGANIZATION ( #66, #32 ) ;
#54 = EDGE_CURVE ( 'NONE', #12, #21, #180, .T. ) ;
#55 = CIRCLE ( 'NONE', #118, 6.000000000000000888 ) ;
#56 = SECURITY_CLASSIFICATION ( '', '', #145 ) ;
#57 = DIRECTION ( 'NONE',  ( -0.000000000000000000, -0.000000000000000000, -1.000000000000000000 ) ) ;
#58 = DIRECTION ( 'NONE',  ( 1.000000000000000000, 0.000000000000000000, -0.000000000000000000 ) ) ;
#59 = ORIENTED_EDGE ( 'NONE', *, *, #228, .T. ) ;
#60 = AXIS2_PLACEMENT_3D ( 'NONE', #213, #48, #158 ) ;
#61 = CARTESIAN_POINT ( 'NONE',  ( 0.000000000000000000, 0.000000000000000000, 6.500000000000000000 ) ) ;
#62 = APPROVAL ( #208, 'NEURÈENÝ' ) ;
#63 = MECHANICAL_CONTEXT ( 'NONE', #212, 'mechanical' ) ;
#64 = VECTOR ( 'NONE', #119, 1000.000000000000000 ) ;
#65 = DIRECTION ( 'NONE',  ( -0.000000000000000000, -0.000000000000000000, -1.000000000000000000 ) ) ;
#66 = PERSON ( 'NEURÈENÝ', 'NEURÈENÝ', 'NEURÈENÝ', ('NEURÈENÝ'), ('NEURÈENÝ'), ('NEURÈENÝ') ) ;
#67 = VECTOR ( 'NONE', #107, 1000.000000000000000 ) ;
#68 = CC_DESIGN_PERSON_AND_ORGANIZATION_ASSIGNMENT ( #53, #218, ( #56 ) ) ;
#69 = CARTESIAN_POINT ( 'NONE',  ( 0.000000000000000000, 0.000000000000000000, 6.500000000000000000 ) ) ;
#70 = CARTESIAN_POINT ( 'NONE',  ( 0.000000000000000000, 0.000000000000000000, 160.0000000000000000 ) ) ;
#71 = ADVANCED_FACE ( 'NONE', ( #116 ), #192, .T. ) ;
#72 = VERTEX_POINT ( 'NONE', #131 ) ;
#73 = CC_DESIGN_APPROVAL ( #129, ( #224 ) ) ;
#74 = APPLICATION_PROTOCOL_DEFINITION ( 'international standard', 'config_control_design', 1994, #134 ) ;
#75 = APPROVAL_DATE_TIME ( #183, #161 ) ;
#76 = VERTEX_POINT ( 'NONE', #117 ) ;
#77 = EDGE_LOOP ( 'NONE', ( #59, #184 ) ) ;
#78 = ADVANCED_FACE ( 'NONE', ( #190 ), #15, .T. ) ;
#79 = CARTESIAN_POINT ( 'NONE',  ( 9.000000000000000000, 1.102182119232617517E-15, 0.000000000000000000 ) ) ;
#80 = ORIENTED_EDGE ( 'NONE', *, *, #108, .T. ) ;
#81 = ORIENTED_EDGE ( 'NONE', *, *, #189, .F. ) ;
#82 = DIRECTION ( 'NONE',  ( 1.000000000000000000, 0.000000000000000000, -0.000000000000000000 ) ) ;
#83 = DIRECTION ( 'NONE',  ( 0.000000000000000000, 0.000000000000000000, 1.000000000000000000 ) ) ;
#84 = EDGE_CURVE ( 'NONE', #76, #223, #55, .T. ) ;
#85 = DIRECTION ( 'NONE',  ( 0.000000000000000000, 0.000000000000000000, 1.000000000000000000 ) ) ;
#86 = APPROVAL_PERSON_ORGANIZATION ( #113, #129, #181 ) ;
#87 = CARTESIAN_POINT ( 'NONE',  ( 0.000000000000000000, 0.000000000000000000, 0.000000000000000000 ) ) ;
#88 = DIRECTION ( 'NONE',  ( 1.000000000000000000, 0.000000000000000000, 0.000000000000000000 ) ) ;
#89 = CC_DESIGN_PERSON_AND_ORGANIZATION_ASSIGNMENT ( #163, #239, ( #206 ) ) ;
#90 = PERSON_AND_ORGANIZATION_ROLE ( 'creator' ) ;
#91 = ORIENTED_EDGE ( 'NONE', *, *, #204, .F. ) ;
#92 = PERSON_AND_ORGANIZATION_ROLE ( 'creator' ) ;
#93 = ORIENTED_EDGE ( 'NONE', *, *, #54, .T. ) ;
#94 = CIRCLE ( 'NONE', #60, 6.000000000000000888 ) ;
#95 = COORDINATED_UNIVERSAL_TIME_OFFSET ( 1, 0, .AHEAD. ) ;
#96 = EDGE_LOOP ( 'NONE', ( #170, #147, #7, #188 ) ) ;
#97 = ORIENTED_EDGE ( 'NONE', *, *, #144, .T. ) ;
#98 = ADVANCED_FACE ( 'NONE', ( #173 ), #156, .T. ) ;
#99 = FACE_OUTER_BOUND ( 'NONE', #217, .T. ) ;
#100 = PRODUCT ( '023e', '023e', '', ( #63 ) ) ;
#101 = CC_DESIGN_PERSON_AND_ORGANIZATION_ASSIGNMENT ( #8, #201, ( #100 ) ) ;
#102 = CARTESIAN_POINT ( 'NONE',  ( 0.000000000000000000, 0.000000000000000000, 0.000000000000000000 ) ) ;
#103 = CARTESIAN_POINT ( 'NONE',  ( 0.000000000000000000, 0.000000000000000000, 160.0000000000000000 ) ) ;
#104 = EDGE_CURVE ( 'NONE', #72, #13, #41, .T. ) ;
#105 =( LENGTH_UNIT ( ) NAMED_UNIT ( * ) SI_UNIT ( .MILLI., .METRE. ) );
#106 = CIRCLE ( 'NONE', #191, 6.000000000000000888 ) ;
#107 = DIRECTION ( 'NONE',  ( -0.000000000000000000, -0.000000000000000000, -1.000000000000000000 ) ) ;
#108 = EDGE_CURVE ( 'NONE', #13, #12, #232, .T. ) ;
#109 = ORIENTED_EDGE ( 'NONE', *, *, #26, .T. ) ;
#110 = CC_DESIGN_PERSON_AND_ORGANIZATION_ASSIGNMENT ( #6, #92, ( #206 ) ) ;
#111 = DATE_AND_TIME ( #115, #160 ) ;
#112 = EDGE_LOOP ( 'NONE', ( #52, #242, #199, #230 ) ) ;
#113 = PERSON_AND_ORGANIZATION ( #66, #32 ) ;
#114 = AXIS2_PLACEMENT_3D ( 'NONE', #70, #136, #47 ) ;
#115 = CALENDAR_DATE ( 2023, 13, 2 ) ;
#116 = FACE_OUTER_BOUND ( 'NONE', #241, .T. ) ;
#117 = CARTESIAN_POINT ( 'NONE',  ( 6.000000000000000888, 7.347880794884120722E-16, 160.0000000000000000 ) ) ;
#118 = AXIS2_PLACEMENT_3D ( 'NONE', #42, #83, #28 ) ;
#119 = DIRECTION ( 'NONE',  ( -0.000000000000000000, -0.000000000000000000, -1.000000000000000000 ) ) ;
#120 = AXIS2_PLACEMENT_3D ( 'NONE', #255, #23, #179 ) ;
#121 = LINE ( 'NONE', #140, #67 ) ;
#122 = ADVANCED_FACE ( 'NONE', ( #124 ), #211, .T. ) ;
#123 = CARTESIAN_POINT ( 'NONE',  ( 6.000000000000000888, 7.347880794884120722E-16, 6.500000000000000000 ) ) ;
#124 = FACE_OUTER_BOUND ( 'NONE', #112, .T. ) ;
#125 = UNCERTAINTY_MEASURE_WITH_UNIT (LENGTH_MEASURE( 1.000000000000000082E-05 ), #105, 'distance_accuracy_value', 'NONE');
#126 = LOCAL_TIME ( 12, 32, 31.00000000000000000, #215 ) ;
#127 = DATE_AND_TIME ( #51, #149 ) ;
#128 = AXIS2_PLACEMENT_3D ( 'NONE', #235, #3, #88 ) ;
#129 = APPROVAL ( #146, 'NEURÈENÝ' ) ;
#130 = CARTESIAN_POINT ( 'NONE',  ( 6.000000000000000888, 7.347880794884120722E-16, 160.0000000000000000 ) ) ;
#131 = CARTESIAN_POINT ( 'NONE',  ( -9.000000000000000000, 0.000000000000000000, 6.500000000000000000 ) ) ;
#132 = FACE_BOUND ( 'NONE', #30, .T. ) ;
#133 = LINE ( 'NONE', #194, #64 ) ;
#134 = APPLICATION_CONTEXT ( 'configuration controlled 3d designs of mechanical parts and assemblies' ) ;
#135 = FACE_OUTER_BOUND ( 'NONE', #96, .T. ) ;
#136 = DIRECTION ( 'NONE',  ( -0.000000000000000000, -0.000000000000000000, -1.000000000000000000 ) ) ;
#137 = APPROVAL_PERSON_ORGANIZATION ( #164, #62, #18 ) ;
#138 = PLANE ( 'NONE',  #142 ) ;
#139 = DIRECTION ( 'NONE',  ( 0.000000000000000000, 0.000000000000000000, 1.000000000000000000 ) ) ;
#140 = CARTESIAN_POINT ( 'NONE',  ( -9.000000000000000000, 0.000000000000000000, 6.500000000000000000 ) ) ;
#141 = CIRCLE ( 'NONE', #36, 9.000000000000000000 ) ;
#142 = AXIS2_PLACEMENT_3D ( 'NONE', #87, #27, #46 ) ;
#143 = APPROVAL_ROLE ( '' ) ;
#144 = EDGE_CURVE ( 'NONE', #165, #19, #106, .T. ) ;
#145 = SECURITY_CLASSIFICATION_LEVEL ( 'unclassified' ) ;
#146 = APPROVAL_STATUS ( 'not_yet_approved' ) ;
#147 = ORIENTED_EDGE ( 'NONE', *, *, #104, .F. ) ;
#148 = AXIS2_PLACEMENT_3D ( 'NONE', #177, #85, #196 ) ;
#149 = LOCAL_TIME ( 12, 32, 31.00000000000000000, #95 ) ;
#150 = ORIENTED_EDGE ( 'NONE', *, *, #84, .F. ) ;
#151 = DIRECTION ( 'NONE',  ( 0.000000000000000000, 0.000000000000000000, 1.000000000000000000 ) ) ;
#152 = ADVANCED_FACE ( 'NONE', ( #2 ), #138, .F. ) ;
#153 = AXIS2_PLACEMENT_3D ( 'NONE', #225, #253, #82 ) ;
#154 = CARTESIAN_POINT ( 'NONE',  ( -9.000000000000000000, 0.000000000000000000, 0.000000000000000000 ) ) ;
#155 = DIRECTION ( 'NONE',  ( 0.000000000000000000, 0.000000000000000000, 1.000000000000000000 ) ) ;
#156 = CYLINDRICAL_SURFACE ( 'NONE', #120, 9.000000000000000000 ) ;
#157 = AXIS2_PLACEMENT_3D ( 'NONE', #103, #236, #197 ) ;
#158 = DIRECTION ( 'NONE',  ( 1.000000000000000000, 0.000000000000000000, 0.000000000000000000 ) ) ;
#159 = DIRECTION ( 'NONE',  ( 0.000000000000000000, 0.000000000000000000, 1.000000000000000000 ) ) ;
#160 = LOCAL_TIME ( 12, 32, 31.00000000000000000, #162 ) ;
#161 = APPROVAL ( #33, 'NEURÈENÝ' ) ;
#162 = COORDINATED_UNIVERSAL_TIME_OFFSET ( 1, 0, .AHEAD. ) ;
#163 = PERSON_AND_ORGANIZATION ( #66, #32 ) ;
#164 = PERSON_AND_ORGANIZATION ( #66, #32 ) ;
#165 = VERTEX_POINT ( 'NONE', #123 ) ;
#166 = COORDINATED_UNIVERSAL_TIME_OFFSET ( 1, 0, .AHEAD. ) ;
#167 = ORIENTED_EDGE ( 'NONE', *, *, #26, .F. ) ;
#168 = ORIENTED_EDGE ( 'NONE', *, *, #22, .T. ) ;
#169 = SHAPE_DEFINITION_REPRESENTATION ( #44, #234 ) ;
#170 = ORIENTED_EDGE ( 'NONE', *, *, #108, .F. ) ;
#171 = CARTESIAN_POINT ( 'NONE',  ( -6.000000000000000888, 0.000000000000000000, 6.500000000000000000 ) ) ;
#172 = ORIENTED_EDGE ( 'NONE', *, *, #54, .F. ) ;
#173 = FACE_OUTER_BOUND ( 'NONE', #220, .T. ) ;
#174 = APPLICATION_PROTOCOL_DEFINITION ( 'international standard', 'config_control_design', 1994, #212 ) ;
#175 = VECTOR ( 'NONE', #65, 1000.000000000000000 ) ;
#176 =( GEOMETRIC_REPRESENTATION_CONTEXT ( 3 ) GLOBAL_UNCERTAINTY_ASSIGNED_CONTEXT ( ( #125 ) ) GLOBAL_UNIT_ASSIGNED_CONTEXT ( ( #105, #49, #1 ) ) REPRESENTATION_CONTEXT ( 'NONE', 'WORKASPACE' ) );
#177 = CARTESIAN_POINT ( 'NONE',  ( 0.000000000000000000, 0.000000000000000000, 6.500000000000000000 ) ) ;
#178 = CARTESIAN_POINT ( 'NONE',  ( 0.000000000000000000, 0.000000000000000000, 0.000000000000000000 ) ) ;
#179 = DIRECTION ( 'NONE',  ( -1.000000000000000000, 0.000000000000000000, 0.000000000000000000 ) ) ;
#180 = CIRCLE ( 'NONE', #50, 9.000000000000000000 ) ;
#181 = APPROVAL_ROLE ( '' ) ;
#182 = ORIENTED_EDGE ( 'NONE', *, *, #144, .F. ) ;
#183 = DATE_AND_TIME ( #216, #126 ) ;
#184 = ORIENTED_EDGE ( 'NONE', *, *, #84, .T. ) ;
#185 = DATE_AND_TIME ( #186, #11 ) ;
#186 = CALENDAR_DATE ( 2023, 13, 2 ) ;
#187 = ORIENTED_EDGE ( 'NONE', *, *, #17, .F. ) ;
#188 = ORIENTED_EDGE ( 'NONE', *, *, #204, .T. ) ;
#189 = EDGE_CURVE ( 'NONE', #72, #21, #121, .T. ) ;
#190 = FACE_OUTER_BOUND ( 'NONE', #77, .T. ) ;
#191 = AXIS2_PLACEMENT_3D ( 'NONE', #69, #139, #210 ) ;
#192 = CYLINDRICAL_SURFACE ( 'NONE', #237, 6.000000000000000888 ) ;
#193 = CARTESIAN_POINT ( 'NONE',  ( 0.000000000000000000, 0.000000000000000000, 160.0000000000000000 ) ) ;
#194 = CARTESIAN_POINT ( 'NONE',  ( -6.000000000000000888, 0.000000000000000000, 160.0000000000000000 ) ) ;
#195 = AXIS2_PLACEMENT_3D ( 'NONE', #178, #159, #214 ) ;
#196 = DIRECTION ( 'NONE',  ( 1.000000000000000000, 0.000000000000000000, 0.000000000000000000 ) ) ;
#197 = DIRECTION ( 'NONE',  ( 1.000000000000000000, 0.000000000000000000, 0.000000000000000000 ) ) ;
#198 = CARTESIAN_POINT ( 'NONE',  ( 9.000000000000000000, 1.102182119232617517E-15, 6.500000000000000000 ) ) ;
#199 = ORIENTED_EDGE ( 'NONE', *, *, #17, .T. ) ;
#200 = AXIS2_PLACEMENT_3D ( 'NONE', #227, #251, #45 ) ;
#201 = PERSON_AND_ORGANIZATION_ROLE ( 'design_owner' ) ;
#202 = DATE_AND_TIME ( #229, #233 ) ;
#203 = CYLINDRICAL_SURFACE ( 'NONE', #200, 9.000000000000000000 ) ;
#204 = EDGE_CURVE ( 'NONE', #21, #12, #25, .T. ) ;
#205 = CARTESIAN_POINT ( 'NONE',  ( 9.000000000000000000, 1.102182119232617517E-15, 6.500000000000000000 ) ) ;
#206 = PRODUCT_DEFINITION_FORMATION_WITH_SPECIFIED_SOURCE ( 'LIBOVOLNÝ', '', #100, .NOT_KNOWN. ) ;
#207 = DIRECTION ( 'NONE',  ( 1.000000000000000000, 0.000000000000000000, 0.000000000000000000 ) ) ;
#208 = APPROVAL_STATUS ( 'not_yet_approved' ) ;
#209 = VECTOR ( 'NONE', #249, 1000.000000000000000 ) ;
#210 = DIRECTION ( 'NONE',  ( 1.000000000000000000, 0.000000000000000000, 0.000000000000000000 ) ) ;
#211 = CYLINDRICAL_SURFACE ( 'NONE', #114, 6.000000000000000888 ) ;
#212 = APPLICATION_CONTEXT ( 'configuration controlled 3d designs of mechanical parts and assemblies' ) ;
#213 = CARTESIAN_POINT ( 'NONE',  ( 0.000000000000000000, 0.000000000000000000, 6.500000000000000000 ) ) ;
#214 = DIRECTION ( 'NONE',  ( 1.000000000000000000, 0.000000000000000000, 0.000000000000000000 ) ) ;
#215 = COORDINATED_UNIVERSAL_TIME_OFFSET ( 1, 0, .AHEAD. ) ;
#216 = CALENDAR_DATE ( 2023, 13, 2 ) ;
#217 = EDGE_LOOP ( 'NONE', ( #35, #109 ) ) ;
#218 = PERSON_AND_ORGANIZATION_ROLE ( 'classification_officer' ) ;
#219 = CC_DESIGN_SECURITY_CLASSIFICATION ( #56, ( #206 ) ) ;
#220 = EDGE_LOOP ( 'NONE', ( #167, #80, #93, #81 ) ) ;
#221 = PRODUCT_RELATED_PRODUCT_CATEGORY ( 'detail', '', ( #100 ) ) ;
#222 = DATE_TIME_ROLE ( 'creation_date' ) ;
#223 = VERTEX_POINT ( 'NONE', #24 ) ;
#224 = PRODUCT_DEFINITION ( 'NEZNÁMÝ', '', #206, #254 ) ;
#225 = CARTESIAN_POINT ( 'NONE',  ( 0.000000000000000000, 0.000000000000000000, 6.500000000000000000 ) ) ;
#226 = DIRECTION ( 'NONE',  ( 0.000000000000000000, 0.000000000000000000, 1.000000000000000000 ) ) ;
#227 = CARTESIAN_POINT ( 'NONE',  ( 0.000000000000000000, 0.000000000000000000, 6.500000000000000000 ) ) ;
#228 = EDGE_CURVE ( 'NONE', #223, #76, #37, .T. ) ;
#229 = CALENDAR_DATE ( 2023, 13, 2 ) ;
#230 = ORIENTED_EDGE ( 'NONE', *, *, #244, .T. ) ;
#231 = CC_DESIGN_DATE_AND_TIME_ASSIGNMENT ( #127, #10, ( #56 ) ) ;
#232 = LINE ( 'NONE', #198, #175 ) ;
#233 = LOCAL_TIME ( 12, 32, 31.00000000000000000, #166 ) ;
#234 = ADVANCED_BREP_SHAPE_REPRESENTATION ( '023e', ( #16, #128 ), #176 ) ;
#235 = CARTESIAN_POINT ( 'NONE',  ( 0.000000000000000000, 0.000000000000000000, 0.000000000000000000 ) ) ;
#236 = DIRECTION ( 'NONE',  ( 0.000000000000000000, 0.000000000000000000, 1.000000000000000000 ) ) ;
#237 = AXIS2_PLACEMENT_3D ( 'NONE', #193, #57, #14 ) ;
#238 = PERSON_AND_ORGANIZATION ( #66, #32 ) ;
#239 = PERSON_AND_ORGANIZATION_ROLE ( 'design_supplier' ) ;
#240 = CC_DESIGN_APPROVAL ( #62, ( #56 ) ) ;
#241 = EDGE_LOOP ( 'NONE', ( #150, #168, #97, #187 ) ) ;
#242 = ORIENTED_EDGE ( 'NONE', *, *, #228, .F. ) ;
#243 = CLOSED_SHELL ( 'NONE', ( #71, #98, #31, #5, #152, #122, #78 ) ) ;
#244 = EDGE_CURVE ( 'NONE', #19, #165, #94, .T. ) ;
#245 = APPROVAL_DATE_TIME ( #202, #62 ) ;
#246 = PLANE ( 'NONE',  #153 ) ;
#247 = CC_DESIGN_APPROVAL ( #161, ( #206 ) ) ;
#248 = CARTESIAN_POINT ( 'NONE',  ( 0.000000000000000000, 0.000000000000000000, 160.0000000000000000 ) ) ;
#249 = DIRECTION ( 'NONE',  ( -0.000000000000000000, -0.000000000000000000, -1.000000000000000000 ) ) ;
#250 = CC_DESIGN_PERSON_AND_ORGANIZATION_ASSIGNMENT ( #34, #90, ( #224 ) ) ;
#251 = DIRECTION ( 'NONE',  ( -0.000000000000000000, -0.000000000000000000, -1.000000000000000000 ) ) ;
#252 = APPROVAL_PERSON_ORGANIZATION ( #238, #161, #143 ) ;
#253 = DIRECTION ( 'NONE',  ( 0.000000000000000000, 0.000000000000000000, 1.000000000000000000 ) ) ;
#254 = DESIGN_CONTEXT ( 'detailed design', #134, 'design' ) ;
#255 = CARTESIAN_POINT ( 'NONE',  ( 0.000000000000000000, 0.000000000000000000, 6.500000000000000000 ) ) ;
ENDSEC;
END-ISO-10303-21;
