ISO-10303-21;
HEADER;
FILE_DESCRIPTION (( 'STEP AP203' ),
    '1' );
FILE_NAME ('140f.STEP',
    '2023-02-13T13:46:33',
    ( '' ),
    ( '' ),
    'SwSTEP 2.0',
    'SolidWorks 2019',
    '' );
FILE_SCHEMA (( 'CONFIG_CONTROL_DESIGN' ));
ENDSEC;

DATA;
#1 = CARTESIAN_POINT ( 'NONE',  ( -4.500000000000000888, 0.000000000000000000, 125.0000000000000000 ) ) ;
#2 = AXIS2_PLACEMENT_3D ( 'NONE', #224, #227, #105 ) ;
#3 = ORIENTED_EDGE ( 'NONE', *, *, #148, .F. ) ;
#4 = ORIENTED_EDGE ( 'NONE', *, *, #223, .T. ) ;
#5 = PERSON ( 'NEURÈENÝ', 'NEURÈENÝ', 'NEURÈENÝ', ('NEURÈENÝ'), ('NEURÈENÝ'), ('NEURÈENÝ') ) ;
#6 = EDGE_CURVE ( 'NONE', #90, #22, #137, .T. ) ;
#7 = DIRECTION ( 'NONE',  ( 0.000000000000000000, 0.000000000000000000, 1.000000000000000000 ) ) ;
#8 = EDGE_LOOP ( 'NONE', ( #78, #157 ) ) ;
#9 = EDGE_CURVE ( 'NONE', #22, #90, #27, .T. ) ;
#10 = CARTESIAN_POINT ( 'NONE',  ( 4.500000000000000888, 5.510910596163089556E-16, 125.0000000000000000 ) ) ;
#11 = PLANE ( 'NONE',  #2 ) ;
#12 = CARTESIAN_POINT ( 'NONE',  ( -7.000000000000000000, 0.000000000000000000, 6.500000000000000000 ) ) ;
#13 = CARTESIAN_POINT ( 'NONE',  ( -4.500000000000000888, 0.000000000000000000, 6.500000000000000000 ) ) ;
#14 = ADVANCED_FACE ( 'NONE', ( #239 ), #241, .T. ) ;
#15 = ORIENTED_EDGE ( 'NONE', *, *, #100, .F. ) ;
#16 = MECHANICAL_CONTEXT ( 'NONE', #43, 'mechanical' ) ;
#17 = CC_DESIGN_PERSON_AND_ORGANIZATION_ASSIGNMENT ( #107, #205, ( #196 ) ) ;
#18 = PERSON_AND_ORGANIZATION_ROLE ( 'design_owner' ) ;
#19 = CIRCLE ( 'NONE', #226, 4.500000000000000888 ) ;
#20 = LINE ( 'NONE', #195, #111 ) ;
#21 = EDGE_CURVE ( 'NONE', #206, #55, #143, .T. ) ;
#22 = VERTEX_POINT ( 'NONE', #136 ) ;
#23 = LOCAL_TIME ( 14, 46, 33.00000000000000000, #72 ) ;
#24 = CARTESIAN_POINT ( 'NONE',  ( 0.000000000000000000, 0.000000000000000000, 0.000000000000000000 ) ) ;
#25 = ORIENTED_EDGE ( 'NONE', *, *, #213, .T. ) ;
#26 = DIRECTION ( 'NONE',  ( -0.000000000000000000, -0.000000000000000000, -1.000000000000000000 ) ) ;
#27 = CIRCLE ( 'NONE', #189, 7.000000000000000000 ) ;
#28 = DIRECTION ( 'NONE',  ( -0.000000000000000000, -0.000000000000000000, -1.000000000000000000 ) ) ;
#29 = APPROVAL ( #70, 'NEURÈENÝ' ) ;
#30 = PRODUCT_DEFINITION_SHAPE ( 'NONE', 'NONE',  #238 ) ;
#31 = AXIS2_PLACEMENT_3D ( 'NONE', #64, #88, #167 ) ;
#32 = APPROVAL_DATE_TIME ( #75, #61 ) ;
#33 = VECTOR ( 'NONE', #28, 1000.000000000000000 ) ;
#34 = DATE_TIME_ROLE ( 'creation_date' ) ;
#35 = CARTESIAN_POINT ( 'NONE',  ( -7.000000000000000000, 0.000000000000000000, 0.000000000000000000 ) ) ;
#36 = VERTEX_POINT ( 'NONE', #35 ) ;
#37 = ORIENTED_EDGE ( 'NONE', *, *, #47, .F. ) ;
#38 = CARTESIAN_POINT ( 'NONE',  ( 0.000000000000000000, 0.000000000000000000, 125.0000000000000000 ) ) ;
#39 = ADVANCED_FACE ( 'NONE', ( #177 ), #117, .T. ) ;
#40 = CARTESIAN_POINT ( 'NONE',  ( 0.000000000000000000, 0.000000000000000000, 6.500000000000000000 ) ) ;
#41 = CARTESIAN_POINT ( 'NONE',  ( 0.000000000000000000, 0.000000000000000000, 125.0000000000000000 ) ) ;
#42 = AXIS2_PLACEMENT_3D ( 'NONE', #98, #140, #63 ) ;
#43 = APPLICATION_CONTEXT ( 'configuration controlled 3d designs of mechanical parts and assemblies' ) ;
#44 = DESIGN_CONTEXT ( 'detailed design', #212, 'design' ) ;
#45 =( LENGTH_UNIT ( ) NAMED_UNIT ( * ) SI_UNIT ( .MILLI., .METRE. ) );
#46 = CARTESIAN_POINT ( 'NONE',  ( 4.500000000000000888, 5.510910596163089556E-16, 125.0000000000000000 ) ) ;
#47 = EDGE_CURVE ( 'NONE', #22, #76, #20, .T. ) ;
#48 = DIRECTION ( 'NONE',  ( 1.000000000000000000, 0.000000000000000000, -0.000000000000000000 ) ) ;
#49 = CC_DESIGN_APPROVAL ( #61, ( #238 ) ) ;
#50 = CALENDAR_DATE ( 2023, 13, 2 ) ;
#51 = APPROVAL_ROLE ( '' ) ;
#52 = PERSON_AND_ORGANIZATION ( #5, #66 ) ;
#53 = PERSON_AND_ORGANIZATION ( #5, #66 ) ;
#54 = SHAPE_DEFINITION_REPRESENTATION ( #30, #210 ) ;
#55 = VERTEX_POINT ( 'NONE', #1 ) ;
#56 = APPROVAL_PERSON_ORGANIZATION ( #187, #122, #51 ) ;
#57 = EDGE_CURVE ( 'NONE', #76, #36, #94, .T. ) ;
#58 = ORIENTED_EDGE ( 'NONE', *, *, #6, .F. ) ;
#59 = CARTESIAN_POINT ( 'NONE',  ( 0.000000000000000000, 0.000000000000000000, 6.500000000000000000 ) ) ;
#60 = CARTESIAN_POINT ( 'NONE',  ( 7.000000000000000000, 8.572527594031471218E-16, 0.000000000000000000 ) ) ;
#61 = APPROVAL ( #71, 'NEURÈENÝ' ) ;
#62 = CYLINDRICAL_SURFACE ( 'NONE', #168, 7.000000000000000000 ) ;
#63 = DIRECTION ( 'NONE',  ( -1.000000000000000000, 0.000000000000000000, 0.000000000000000000 ) ) ;
#64 = CARTESIAN_POINT ( 'NONE',  ( 0.000000000000000000, 0.000000000000000000, 125.0000000000000000 ) ) ;
#65 = FACE_OUTER_BOUND ( 'NONE', #176, .T. ) ;
#66 = ORGANIZATION ( 'NEURÈENÝ', 'NEURÈENÝ', '' ) ;
#67 = PRODUCT ( '140f', '140f', '', ( #16 ) ) ;
#68 = DIRECTION ( 'NONE',  ( 0.000000000000000000, 0.000000000000000000, 1.000000000000000000 ) ) ;
#69 = CC_DESIGN_PERSON_AND_ORGANIZATION_ASSIGNMENT ( #89, #18, ( #67 ) ) ;
#70 = APPROVAL_STATUS ( 'not_yet_approved' ) ;
#71 = APPROVAL_STATUS ( 'not_yet_approved' ) ;
#72 = COORDINATED_UNIVERSAL_TIME_OFFSET ( 1, 0, .AHEAD. ) ;
#73 = COORDINATED_UNIVERSAL_TIME_OFFSET ( 1, 0, .AHEAD. ) ;
#74 = ORIENTED_EDGE ( 'NONE', *, *, #57, .T. ) ;
#75 = DATE_AND_TIME ( #255, #249 ) ;
#76 = VERTEX_POINT ( 'NONE', #60 ) ;
#77 = PRODUCT_RELATED_PRODUCT_CATEGORY ( 'detail', '', ( #67 ) ) ;
#78 = ORIENTED_EDGE ( 'NONE', *, *, #166, .F. ) ;
#79 = ORIENTED_EDGE ( 'NONE', *, *, #166, .T. ) ;
#80 = DIRECTION ( 'NONE',  ( 0.000000000000000000, 0.000000000000000000, 1.000000000000000000 ) ) ;
#81 = ORIENTED_EDGE ( 'NONE', *, *, #100, .T. ) ;
#82 = AXIS2_PLACEMENT_3D ( 'NONE', #165, #127, #106 ) ;
#83 = EDGE_LOOP ( 'NONE', ( #25, #245 ) ) ;
#84 = ADVANCED_FACE ( 'NONE', ( #138 ), #62, .T. ) ;
#85 = FACE_OUTER_BOUND ( 'NONE', #8, .T. ) ;
#86 = DIRECTION ( 'NONE',  ( -0.000000000000000000, -0.000000000000000000, -1.000000000000000000 ) ) ;
#87 = CARTESIAN_POINT ( 'NONE',  ( 0.000000000000000000, 0.000000000000000000, 6.500000000000000000 ) ) ;
#88 = DIRECTION ( 'NONE',  ( 0.000000000000000000, 0.000000000000000000, 1.000000000000000000 ) ) ;
#89 = PERSON_AND_ORGANIZATION ( #5, #66 ) ;
#90 = VERTEX_POINT ( 'NONE', #12 ) ;
#91 = APPROVAL_STATUS ( 'not_yet_approved' ) ;
#92 = ORIENTED_EDGE ( 'NONE', *, *, #223, .F. ) ;
#93 = DIRECTION ( 'NONE',  ( 1.000000000000000000, 0.000000000000000000, 0.000000000000000000 ) ) ;
#94 = CIRCLE ( 'NONE', #247, 7.000000000000000000 ) ;
#95 = EDGE_LOOP ( 'NONE', ( #37, #58, #197, #79 ) ) ;
#96 = DIRECTION ( 'NONE',  ( 0.000000000000000000, 0.000000000000000000, 1.000000000000000000 ) ) ;
#97 = MANIFOLD_SOLID_BREP ( 'Pøidat vysunutím3', #104 ) ;
#98 = CARTESIAN_POINT ( 'NONE',  ( 0.000000000000000000, 0.000000000000000000, 6.500000000000000000 ) ) ;
#99 = DIRECTION ( 'NONE',  ( -1.000000000000000000, 0.000000000000000000, 0.000000000000000000 ) ) ;
#100 = EDGE_CURVE ( 'NONE', #55, #115, #185, .T. ) ;
#101 = CYLINDRICAL_SURFACE ( 'NONE', #243, 4.500000000000000888 ) ;
#102 = CYLINDRICAL_SURFACE ( 'NONE', #116, 4.500000000000000888 ) ;
#103 = DIRECTION ( 'NONE',  ( -0.000000000000000000, -0.000000000000000000, -1.000000000000000000 ) ) ;
#104 = CLOSED_SHELL ( 'NONE', ( #119, #84, #14, #128, #193, #244, #39 ) ) ;
#105 = DIRECTION ( 'NONE',  ( 1.000000000000000000, 0.000000000000000000, -0.000000000000000000 ) ) ;
#106 = DIRECTION ( 'NONE',  ( 1.000000000000000000, 0.000000000000000000, 0.000000000000000000 ) ) ;
#107 = PERSON_AND_ORGANIZATION ( #5, #66 ) ;
#108 = APPLICATION_PROTOCOL_DEFINITION ( 'international standard', 'config_control_design', 1994, #212 ) ;
#109 =( GEOMETRIC_REPRESENTATION_CONTEXT ( 3 ) GLOBAL_UNCERTAINTY_ASSIGNED_CONTEXT ( ( #162 ) ) GLOBAL_UNIT_ASSIGNED_CONTEXT ( ( #45, #225, #123 ) ) REPRESENTATION_CONTEXT ( 'NONE', 'WORKASPACE' ) );
#110 = ORIENTED_EDGE ( 'NONE', *, *, #213, .F. ) ;
#111 = VECTOR ( 'NONE', #159, 1000.000000000000000 ) ;
#112 = PERSON_AND_ORGANIZATION_ROLE ( 'design_supplier' ) ;
#113 = CC_DESIGN_SECURITY_CLASSIFICATION ( #196, ( #214 ) ) ;
#114 = ORIENTED_EDGE ( 'NONE', *, *, #6, .T. ) ;
#115 = VERTEX_POINT ( 'NONE', #13 ) ;
#116 = AXIS2_PLACEMENT_3D ( 'NONE', #41, #103, #252 ) ;
#117 = PLANE ( 'NONE',  #155 ) ;
#118 = ORIENTED_EDGE ( 'NONE', *, *, #9, .F. ) ;
#119 = ADVANCED_FACE ( 'NONE', ( #65 ), #102, .T. ) ;
#120 = ORIENTED_EDGE ( 'NONE', *, *, #231, .T. ) ;
#121 = FACE_BOUND ( 'NONE', #194, .T. ) ;
#122 = APPROVAL ( #91, 'NEURÈENÝ' ) ;
#123 =( NAMED_UNIT ( * ) SI_UNIT ( $, .STERADIAN. ) SOLID_ANGLE_UNIT ( ) );
#124 = CARTESIAN_POINT ( 'NONE',  ( 4.500000000000000888, 5.510910596163089556E-16, 6.500000000000000000 ) ) ;
#125 = FACE_OUTER_BOUND ( 'NONE', #218, .T. ) ;
#126 = CIRCLE ( 'NONE', #82, 7.000000000000000000 ) ;
#127 = DIRECTION ( 'NONE',  ( 0.000000000000000000, 0.000000000000000000, 1.000000000000000000 ) ) ;
#128 = ADVANCED_FACE ( 'NONE', ( #121, #201 ), #246, .T. ) ;
#129 = DATE_AND_TIME ( #50, #221 ) ;
#130 = DATE_AND_TIME ( #236, #23 ) ;
#131 = AXIS2_PLACEMENT_3D ( 'NONE', #216, #7, #93 ) ;
#132 = CC_DESIGN_APPROVAL ( #122, ( #196 ) ) ;
#133 = APPROVAL_ROLE ( '' ) ;
#134 = SECURITY_CLASSIFICATION_LEVEL ( 'unclassified' ) ;
#135 = ORIENTED_EDGE ( 'NONE', *, *, #9, .T. ) ;
#136 = CARTESIAN_POINT ( 'NONE',  ( 7.000000000000000000, 8.572527594031471218E-16, 6.500000000000000000 ) ) ;
#137 = CIRCLE ( 'NONE', #147, 7.000000000000000000 ) ;
#138 = FACE_OUTER_BOUND ( 'NONE', #220, .T. ) ;
#139 = LOCAL_TIME ( 14, 46, 33.00000000000000000, #154 ) ;
#140 = DIRECTION ( 'NONE',  ( -0.000000000000000000, -0.000000000000000000, -1.000000000000000000 ) ) ;
#141 = CC_DESIGN_DATE_AND_TIME_ASSIGNMENT ( #129, #34, ( #238 ) ) ;
#142 = DIRECTION ( 'NONE',  ( 0.000000000000000000, 0.000000000000000000, 1.000000000000000000 ) ) ;
#143 = CIRCLE ( 'NONE', #131, 4.500000000000000888 ) ;
#144 = APPROVAL_PERSON_ORGANIZATION ( #172, #61, #171 ) ;
#145 = CARTESIAN_POINT ( 'NONE',  ( -7.000000000000000000, 0.000000000000000000, 6.500000000000000000 ) ) ;
#146 = CARTESIAN_POINT ( 'NONE',  ( -4.500000000000000888, 0.000000000000000000, 125.0000000000000000 ) ) ;
#147 = AXIS2_PLACEMENT_3D ( 'NONE', #198, #96, #240 ) ;
#148 = EDGE_CURVE ( 'NONE', #90, #36, #163, .T. ) ;
#149 = COORDINATED_UNIVERSAL_TIME_OFFSET ( 1, 0, .AHEAD. ) ;
#150 = DATE_TIME_ROLE ( 'classification_date' ) ;
#151 = APPROVAL_DATE_TIME ( #130, #122 ) ;
#152 = VECTOR ( 'NONE', #180, 1000.000000000000000 ) ;
#153 = COORDINATED_UNIVERSAL_TIME_OFFSET ( 1, 0, .AHEAD. ) ;
#154 = COORDINATED_UNIVERSAL_TIME_OFFSET ( 1, 0, .AHEAD. ) ;
#155 = AXIS2_PLACEMENT_3D ( 'NONE', #38, #222, #173 ) ;
#156 = ORIENTED_EDGE ( 'NONE', *, *, #231, .F. ) ;
#157 = ORIENTED_EDGE ( 'NONE', *, *, #57, .F. ) ;
#158 = DIRECTION ( 'NONE',  ( 0.000000000000000000, 0.000000000000000000, 1.000000000000000000 ) ) ;
#159 = DIRECTION ( 'NONE',  ( -0.000000000000000000, -0.000000000000000000, -1.000000000000000000 ) ) ;
#160 = AXIS2_PLACEMENT_3D ( 'NONE', #232, #230, #253 ) ;
#161 = DIRECTION ( 'NONE',  ( 1.000000000000000000, 0.000000000000000000, 0.000000000000000000 ) ) ;
#162 = UNCERTAINTY_MEASURE_WITH_UNIT (LENGTH_MEASURE( 1.000000000000000082E-05 ), #45, 'distance_accuracy_value', 'NONE');
#163 = LINE ( 'NONE', #145, #152 ) ;
#164 = DIRECTION ( 'NONE',  ( 0.000000000000000000, 0.000000000000000000, 1.000000000000000000 ) ) ;
#165 = CARTESIAN_POINT ( 'NONE',  ( 0.000000000000000000, 0.000000000000000000, 0.000000000000000000 ) ) ;
#166 = EDGE_CURVE ( 'NONE', #36, #76, #126, .T. ) ;
#167 = DIRECTION ( 'NONE',  ( 1.000000000000000000, 0.000000000000000000, 0.000000000000000000 ) ) ;
#168 = AXIS2_PLACEMENT_3D ( 'NONE', #40, #26, #99 ) ;
#169 = PERSON_AND_ORGANIZATION ( #5, #66 ) ;
#170 = PERSON_AND_ORGANIZATION_ROLE ( 'creator' ) ;
#171 = APPROVAL_ROLE ( '' ) ;
#172 = PERSON_AND_ORGANIZATION ( #5, #66 ) ;
#173 = DIRECTION ( 'NONE',  ( 1.000000000000000000, 0.000000000000000000, -0.000000000000000000 ) ) ;
#174 = ORIENTED_EDGE ( 'NONE', *, *, #21, .F. ) ;
#175 = CIRCLE ( 'NONE', #31, 4.500000000000000888 ) ;
#176 = EDGE_LOOP ( 'NONE', ( #174, #120, #4, #15 ) ) ;
#177 = FACE_OUTER_BOUND ( 'NONE', #83, .T. ) ;
#178 = EDGE_LOOP ( 'NONE', ( #114, #135 ) ) ;
#179 = DIRECTION ( 'NONE',  ( -1.000000000000000000, 0.000000000000000000, 0.000000000000000000 ) ) ;
#180 = DIRECTION ( 'NONE',  ( -0.000000000000000000, -0.000000000000000000, -1.000000000000000000 ) ) ;
#181 = CARTESIAN_POINT ( 'NONE',  ( 0.000000000000000000, 0.000000000000000000, 6.500000000000000000 ) ) ;
#182 = CIRCLE ( 'NONE', #204, 4.500000000000000888 ) ;
#183 = EDGE_CURVE ( 'NONE', #115, #192, #182, .T. ) ;
#184 = LINE ( 'NONE', #46, #33 ) ;
#185 = LINE ( 'NONE', #146, #199 ) ;
#186 = ORIENTED_EDGE ( 'NONE', *, *, #183, .T. ) ;
#187 = PERSON_AND_ORGANIZATION ( #5, #66 ) ;
#188 = DATE_AND_TIME ( #233, #139 ) ;
#189 = AXIS2_PLACEMENT_3D ( 'NONE', #59, #158, #161 ) ;
#190 = DATE_AND_TIME ( #211, #229 ) ;
#191 = CC_DESIGN_APPROVAL ( #29, ( #214 ) ) ;
#192 = VERTEX_POINT ( 'NONE', #124 ) ;
#193 = ADVANCED_FACE ( 'NONE', ( #85 ), #11, .F. ) ;
#194 = EDGE_LOOP ( 'NONE', ( #237, #92 ) ) ;
#195 = CARTESIAN_POINT ( 'NONE',  ( 7.000000000000000000, 8.572527594031471218E-16, 6.500000000000000000 ) ) ;
#196 = SECURITY_CLASSIFICATION ( '', '', #134 ) ;
#197 = ORIENTED_EDGE ( 'NONE', *, *, #148, .T. ) ;
#198 = CARTESIAN_POINT ( 'NONE',  ( 0.000000000000000000, 0.000000000000000000, 6.500000000000000000 ) ) ;
#199 = VECTOR ( 'NONE', #248, 1000.000000000000000 ) ;
#200 = CARTESIAN_POINT ( 'NONE',  ( 0.000000000000000000, 0.000000000000000000, 6.500000000000000000 ) ) ;
#201 = FACE_OUTER_BOUND ( 'NONE', #178, .T. ) ;
#202 = APPLICATION_PROTOCOL_DEFINITION ( 'international standard', 'config_control_design', 1994, #43 ) ;
#203 = CARTESIAN_POINT ( 'NONE',  ( 0.000000000000000000, 0.000000000000000000, 125.0000000000000000 ) ) ;
#204 = AXIS2_PLACEMENT_3D ( 'NONE', #200, #68, #251 ) ;
#205 = PERSON_AND_ORGANIZATION_ROLE ( 'classification_officer' ) ;
#206 = VERTEX_POINT ( 'NONE', #10 ) ;
#207 = CC_DESIGN_PERSON_AND_ORGANIZATION_ASSIGNMENT ( #235, #254, ( #238 ) ) ;
#208 = APPROVAL_PERSON_ORGANIZATION ( #169, #29, #133 ) ;
#209 = APPROVAL_DATE_TIME ( #188, #29 ) ;
#210 = ADVANCED_BREP_SHAPE_REPRESENTATION ( '140f', ( #97, #160 ), #109 ) ;
#211 = CALENDAR_DATE ( 2023, 13, 2 ) ;
#212 = APPLICATION_CONTEXT ( 'configuration controlled 3d designs of mechanical parts and assemblies' ) ;
#213 = EDGE_CURVE ( 'NONE', #55, #206, #175, .T. ) ;
#214 = PRODUCT_DEFINITION_FORMATION_WITH_SPECIFIED_SOURCE ( 'LIBOVOLNÝ', '', #67, .NOT_KNOWN. ) ;
#215 = CC_DESIGN_DATE_AND_TIME_ASSIGNMENT ( #190, #150, ( #196 ) ) ;
#216 = CARTESIAN_POINT ( 'NONE',  ( 0.000000000000000000, 0.000000000000000000, 125.0000000000000000 ) ) ;
#217 = ORIENTED_EDGE ( 'NONE', *, *, #47, .T. ) ;
#218 = EDGE_LOOP ( 'NONE', ( #156, #110, #81, #186 ) ) ;
#219 = CC_DESIGN_PERSON_AND_ORGANIZATION_ASSIGNMENT ( #53, #170, ( #214 ) ) ;
#220 = EDGE_LOOP ( 'NONE', ( #118, #217, #74, #3 ) ) ;
#221 = LOCAL_TIME ( 14, 46, 33.00000000000000000, #153 ) ;
#222 = DIRECTION ( 'NONE',  ( 0.000000000000000000, 0.000000000000000000, 1.000000000000000000 ) ) ;
#223 = EDGE_CURVE ( 'NONE', #192, #115, #19, .T. ) ;
#224 = CARTESIAN_POINT ( 'NONE',  ( 0.000000000000000000, 0.000000000000000000, 0.000000000000000000 ) ) ;
#225 =( NAMED_UNIT ( * ) PLANE_ANGLE_UNIT ( ) SI_UNIT ( $, .RADIAN. ) );
#226 = AXIS2_PLACEMENT_3D ( 'NONE', #181, #164, #228 ) ;
#227 = DIRECTION ( 'NONE',  ( 0.000000000000000000, 0.000000000000000000, 1.000000000000000000 ) ) ;
#228 = DIRECTION ( 'NONE',  ( 1.000000000000000000, 0.000000000000000000, 0.000000000000000000 ) ) ;
#229 = LOCAL_TIME ( 14, 46, 33.00000000000000000, #149 ) ;
#230 = DIRECTION ( 'NONE',  ( 0.000000000000000000, 0.000000000000000000, 1.000000000000000000 ) ) ;
#231 = EDGE_CURVE ( 'NONE', #206, #192, #184, .T. ) ;
#232 = CARTESIAN_POINT ( 'NONE',  ( 0.000000000000000000, 0.000000000000000000, 0.000000000000000000 ) ) ;
#233 = CALENDAR_DATE ( 2023, 13, 2 ) ;
#234 = AXIS2_PLACEMENT_3D ( 'NONE', #87, #142, #48 ) ;
#235 = PERSON_AND_ORGANIZATION ( #5, #66 ) ;
#236 = CALENDAR_DATE ( 2023, 13, 2 ) ;
#237 = ORIENTED_EDGE ( 'NONE', *, *, #183, .F. ) ;
#238 = PRODUCT_DEFINITION ( 'NEZNÁMÝ', '', #214, #44 ) ;
#239 = FACE_OUTER_BOUND ( 'NONE', #95, .T. ) ;
#240 = DIRECTION ( 'NONE',  ( 1.000000000000000000, 0.000000000000000000, 0.000000000000000000 ) ) ;
#241 = CYLINDRICAL_SURFACE ( 'NONE', #42, 7.000000000000000000 ) ;
#242 = DIRECTION ( 'NONE',  ( 1.000000000000000000, 0.000000000000000000, 0.000000000000000000 ) ) ;
#243 = AXIS2_PLACEMENT_3D ( 'NONE', #203, #86, #179 ) ;
#244 = ADVANCED_FACE ( 'NONE', ( #125 ), #101, .T. ) ;
#245 = ORIENTED_EDGE ( 'NONE', *, *, #21, .T. ) ;
#246 = PLANE ( 'NONE',  #234 ) ;
#247 = AXIS2_PLACEMENT_3D ( 'NONE', #24, #80, #242 ) ;
#248 = DIRECTION ( 'NONE',  ( -0.000000000000000000, -0.000000000000000000, -1.000000000000000000 ) ) ;
#249 = LOCAL_TIME ( 14, 46, 33.00000000000000000, #73 ) ;
#250 = CC_DESIGN_PERSON_AND_ORGANIZATION_ASSIGNMENT ( #52, #112, ( #214 ) ) ;
#251 = DIRECTION ( 'NONE',  ( 1.000000000000000000, 0.000000000000000000, 0.000000000000000000 ) ) ;
#252 = DIRECTION ( 'NONE',  ( -1.000000000000000000, 0.000000000000000000, 0.000000000000000000 ) ) ;
#253 = DIRECTION ( 'NONE',  ( 1.000000000000000000, 0.000000000000000000, 0.000000000000000000 ) ) ;
#254 = PERSON_AND_ORGANIZATION_ROLE ( 'creator' ) ;
#255 = CALENDAR_DATE ( 2023, 13, 2 ) ;
ENDSEC;
END-ISO-10303-21;
