ISO-10303-21;
HEADER;
FILE_DESCRIPTION (( 'STEP AP203' ),
    '1' );
FILE_NAME ('22ea.STEP',
    '2023-02-13T16:52:31',
    ( '' ),
    ( '' ),
    'SwSTEP 2.0',
    'SolidWorks 2019',
    '' );
FILE_SCHEMA (( 'CONFIG_CONTROL_DESIGN' ));
ENDSEC;

DATA;
#1 = VERTEX_POINT ( 'NONE', #75 ) ;
#2 = EDGE_LOOP ( 'NONE', ( #114, #76, #170, #118 ) ) ;
#3 = CARTESIAN_POINT ( 'NONE',  ( 0.000000000000000000, 0.000000000000000000, 315.0000000000000000 ) ) ;
#4 = CARTESIAN_POINT ( 'NONE',  ( 0.000000000000000000, 0.000000000000000000, 315.0000000000000000 ) ) ;
#5 = ORGANIZATION ( 'NEURÈENÝ', 'NEURÈENÝ', '' ) ;
#6 = FACE_OUTER_BOUND ( 'NONE', #2, .T. ) ;
#7 = DIRECTION ( 'NONE',  ( -0.000000000000000000, -0.000000000000000000, -1.000000000000000000 ) ) ;
#8 = CC_DESIGN_PERSON_AND_ORGANIZATION_ASSIGNMENT ( #149, #130, ( #173 ) ) ;
#9 = CARTESIAN_POINT ( 'NONE',  ( 0.000000000000000000, 0.000000000000000000, 3.000000000000000000 ) ) ;
#10 = DIRECTION ( 'NONE',  ( 0.000000000000000000, 0.000000000000000000, 1.000000000000000000 ) ) ;
#11 = AXIS2_PLACEMENT_3D ( 'NONE', #208, #10, #27 ) ;
#12 = PERSON_AND_ORGANIZATION_ROLE ( 'classification_officer' ) ;
#13 = ORIENTED_EDGE ( 'NONE', *, *, #210, .F. ) ;
#14 = CIRCLE ( 'NONE', #57, 1.600000000000000089 ) ;
#15 = ORIENTED_EDGE ( 'NONE', *, *, #231, .F. ) ;
#16 = LOCAL_TIME ( 17, 52, 31.00000000000000000, #45 ) ;
#17 = DIRECTION ( 'NONE',  ( 0.000000000000000000, 0.000000000000000000, 1.000000000000000000 ) ) ;
#18 = CARTESIAN_POINT ( 'NONE',  ( 0.000000000000000000, 0.000000000000000000, 0.000000000000000000 ) ) ;
#19 = LINE ( 'NONE', #42, #108 ) ;
#20 = CARTESIAN_POINT ( 'NONE',  ( 0.000000000000000000, 0.000000000000000000, 3.000000000000000000 ) ) ;
#21 = PRODUCT_RELATED_PRODUCT_CATEGORY ( 'detail', '', ( #173 ) ) ;
#22 = DIRECTION ( 'NONE',  ( -0.000000000000000000, -0.000000000000000000, -1.000000000000000000 ) ) ;
#23 = PERSON_AND_ORGANIZATION ( #126, #5 ) ;
#24 = CC_DESIGN_APPROVAL ( #43, ( #198 ) ) ;
#25 = PRODUCT_DEFINITION ( 'NEZNÁMÝ', '', #198, #92 ) ;
#26 =( NAMED_UNIT ( * ) SI_UNIT ( $, .STERADIAN. ) SOLID_ANGLE_UNIT ( ) );
#27 = DIRECTION ( 'NONE',  ( 1.000000000000000000, 0.000000000000000000, -0.000000000000000000 ) ) ;
#28 = AXIS2_PLACEMENT_3D ( 'NONE', #44, #127, #39 ) ;
#29 = LOCAL_TIME ( 17, 52, 31.00000000000000000, #113 ) ;
#30 = EDGE_LOOP ( 'NONE', ( #192, #171 ) ) ;
#31 = ORIENTED_EDGE ( 'NONE', *, *, #67, .T. ) ;
#32 = AXIS2_PLACEMENT_3D ( 'NONE', #9, #61, #204 ) ;
#33 = AXIS2_PLACEMENT_3D ( 'NONE', #209, #228, #191 ) ;
#34 = ORIENTED_EDGE ( 'NONE', *, *, #193, .F. ) ;
#35 = CC_DESIGN_PERSON_AND_ORGANIZATION_ASSIGNMENT ( #187, #249, ( #198 ) ) ;
#36 = DIRECTION ( 'NONE',  ( -0.000000000000000000, -0.000000000000000000, -1.000000000000000000 ) ) ;
#37 = AXIS2_PLACEMENT_3D ( 'NONE', #3, #220, #200 ) ;
#38 = DIRECTION ( 'NONE',  ( 1.000000000000000000, 0.000000000000000000, 0.000000000000000000 ) ) ;
#39 = DIRECTION ( 'NONE',  ( 1.000000000000000000, 0.000000000000000000, -0.000000000000000000 ) ) ;
#40 = EDGE_CURVE ( 'NONE', #1, #52, #138, .T. ) ;
#41 = CIRCLE ( 'NONE', #224, 3.000000000000000444 ) ;
#42 = CARTESIAN_POINT ( 'NONE',  ( -1.600000000000000089, 0.000000000000000000, 315.0000000000000000 ) ) ;
#43 = APPROVAL ( #48, 'NEURÈENÝ' ) ;
#44 = CARTESIAN_POINT ( 'NONE',  ( 0.000000000000000000, 0.000000000000000000, 315.0000000000000000 ) ) ;
#45 = COORDINATED_UNIVERSAL_TIME_OFFSET ( 1, 0, .AHEAD. ) ;
#46 = APPLICATION_PROTOCOL_DEFINITION ( 'international standard', 'config_control_design', 1994, #79 ) ;
#47 =( NAMED_UNIT ( * ) PLANE_ANGLE_UNIT ( ) SI_UNIT ( $, .RADIAN. ) );
#48 = APPROVAL_STATUS ( 'not_yet_approved' ) ;
#49 = UNCERTAINTY_MEASURE_WITH_UNIT (LENGTH_MEASURE( 1.000000000000000082E-05 ), #65, 'distance_accuracy_value', 'NONE');
#50 = APPROVAL_PERSON_ORGANIZATION ( #206, #43, #166 ) ;
#51 = CC_DESIGN_PERSON_AND_ORGANIZATION_ASSIGNMENT ( #188, #211, ( #25 ) ) ;
#52 = VERTEX_POINT ( 'NONE', #196 ) ;
#53 = CIRCLE ( 'NONE', #185, 3.000000000000000444 ) ;
#54 = DIRECTION ( 'NONE',  ( 0.000000000000000000, 0.000000000000000000, 1.000000000000000000 ) ) ;
#55 = DATE_TIME_ROLE ( 'classification_date' ) ;
#56 = VERTEX_POINT ( 'NONE', #160 ) ;
#57 = AXIS2_PLACEMENT_3D ( 'NONE', #4, #17, #205 ) ;
#58 = CARTESIAN_POINT ( 'NONE',  ( 0.000000000000000000, 0.000000000000000000, 3.000000000000000000 ) ) ;
#59 = ADVANCED_FACE ( 'NONE', ( #162 ), #244, .F. ) ;
#60 = CYLINDRICAL_SURFACE ( 'NONE', #186, 3.000000000000000444 ) ;
#61 = DIRECTION ( 'NONE',  ( 0.000000000000000000, 0.000000000000000000, 1.000000000000000000 ) ) ;
#62 = DIRECTION ( 'NONE',  ( 0.000000000000000000, 0.000000000000000000, 1.000000000000000000 ) ) ;
#63 = DIRECTION ( 'NONE',  ( 0.000000000000000000, 0.000000000000000000, 1.000000000000000000 ) ) ;
#64 = CARTESIAN_POINT ( 'NONE',  ( -1.600000000000000089, 0.000000000000000000, 3.000000000000000000 ) ) ;
#65 =( LENGTH_UNIT ( ) NAMED_UNIT ( * ) SI_UNIT ( .MILLI., .METRE. ) );
#66 = CC_DESIGN_SECURITY_CLASSIFICATION ( #71, ( #198 ) ) ;
#67 = EDGE_CURVE ( 'NONE', #254, #197, #147, .T. ) ;
#68 = DATE_TIME_ROLE ( 'creation_date' ) ;
#69 = APPROVAL ( #217, 'NEURÈENÝ' ) ;
#70 = APPROVAL_DATE_TIME ( #150, #69 ) ;
#71 = SECURITY_CLASSIFICATION ( '', '', #164 ) ;
#72 = CC_DESIGN_APPROVAL ( #100, ( #25 ) ) ;
#73 = EDGE_LOOP ( 'NONE', ( #93, #176, #140, #194 ) ) ;
#74 = COORDINATED_UNIVERSAL_TIME_OFFSET ( 1, 0, .AHEAD. ) ;
#75 = CARTESIAN_POINT ( 'NONE',  ( -1.600000000000000089, 0.000000000000000000, 315.0000000000000000 ) ) ;
#76 = ORIENTED_EDGE ( 'NONE', *, *, #112, .F. ) ;
#77 = ADVANCED_FACE ( 'NONE', ( #6 ), #123, .T. ) ;
#78 = EDGE_LOOP ( 'NONE', ( #97, #151 ) ) ;
#79 = APPLICATION_CONTEXT ( 'configuration controlled 3d designs of mechanical parts and assemblies' ) ;
#80 = CARTESIAN_POINT ( 'NONE',  ( 1.600000000000000089, 1.959434878635765230E-16, 315.0000000000000000 ) ) ;
#81 = LINE ( 'NONE', #141, #96 ) ;
#82 = CARTESIAN_POINT ( 'NONE',  ( 0.000000000000000000, 0.000000000000000000, 3.000000000000000000 ) ) ;
#83 = DIRECTION ( 'NONE',  ( -0.000000000000000000, -0.000000000000000000, -1.000000000000000000 ) ) ;
#84 = CARTESIAN_POINT ( 'NONE',  ( 0.000000000000000000, 0.000000000000000000, 0.000000000000000000 ) ) ;
#85 = PERSON_AND_ORGANIZATION_ROLE ( 'creator' ) ;
#86 = FACE_OUTER_BOUND ( 'NONE', #30, .T. ) ;
#87 = EDGE_CURVE ( 'NONE', #253, #136, #202, .T. ) ;
#88 = PLANE ( 'NONE',  #11 ) ;
#89 = CC_DESIGN_DATE_AND_TIME_ASSIGNMENT ( #250, #68, ( #25 ) ) ;
#90 = CALENDAR_DATE ( 2023, 13, 2 ) ;
#91 = COORDINATED_UNIVERSAL_TIME_OFFSET ( 1, 0, .AHEAD. ) ;
#92 = DESIGN_CONTEXT ( 'detailed design', #234, 'design' ) ;
#93 = ORIENTED_EDGE ( 'NONE', *, *, #87, .F. ) ;
#94 = CALENDAR_DATE ( 2023, 13, 2 ) ;
#95 = ORIENTED_EDGE ( 'NONE', *, *, #121, .F. ) ;
#96 = VECTOR ( 'NONE', #22, 1000.000000000000000 ) ;
#97 = ORIENTED_EDGE ( 'NONE', *, *, #40, .T. ) ;
#98 = DIRECTION ( 'NONE',  ( -1.000000000000000000, 0.000000000000000000, 0.000000000000000000 ) ) ;
#99 = DIRECTION ( 'NONE',  ( -0.000000000000000000, -0.000000000000000000, -1.000000000000000000 ) ) ;
#100 = APPROVAL ( #106, 'NEURÈENÝ' ) ;
#101 = FACE_OUTER_BOUND ( 'NONE', #255, .T. ) ;
#102 = LINE ( 'NONE', #242, #133 ) ;
#103 = DIRECTION ( 'NONE',  ( 0.000000000000000000, 0.000000000000000000, 1.000000000000000000 ) ) ;
#104 = APPROVAL_DATE_TIME ( #251, #43 ) ;
#105 = APPROVAL_PERSON_ORGANIZATION ( #116, #69, #214 ) ;
#106 = APPROVAL_STATUS ( 'not_yet_approved' ) ;
#107 = DIRECTION ( 'NONE',  ( -0.000000000000000000, -0.000000000000000000, -1.000000000000000000 ) ) ;
#108 = VECTOR ( 'NONE', #144, 1000.000000000000000 ) ;
#109 = CARTESIAN_POINT ( 'NONE',  ( 3.000000000000000444, 3.673940397442060361E-16, 3.000000000000000000 ) ) ;
#110 = LOCAL_TIME ( 17, 52, 31.00000000000000000, #169 ) ;
#111 = EDGE_CURVE ( 'NONE', #52, #197, #245, .T. ) ;
#112 = EDGE_CURVE ( 'NONE', #136, #253, #41, .T. ) ;
#113 = COORDINATED_UNIVERSAL_TIME_OFFSET ( 1, 0, .AHEAD. ) ;
#114 = ORIENTED_EDGE ( 'NONE', *, *, #229, .F. ) ;
#115 = ORIENTED_EDGE ( 'NONE', *, *, #210, .T. ) ;
#116 = PERSON_AND_ORGANIZATION ( #126, #5 ) ;
#117 = VERTEX_POINT ( 'NONE', #201 ) ;
#118 = ORIENTED_EDGE ( 'NONE', *, *, #193, .T. ) ;
#119 = ORIENTED_EDGE ( 'NONE', *, *, #40, .F. ) ;
#120 = DIRECTION ( 'NONE',  ( 0.000000000000000000, 0.000000000000000000, 1.000000000000000000 ) ) ;
#121 = EDGE_CURVE ( 'NONE', #1, #254, #19, .T. ) ;
#122 = CYLINDRICAL_SURFACE ( 'NONE', #37, 1.600000000000000089 ) ;
#123 = CYLINDRICAL_SURFACE ( 'NONE', #237, 3.000000000000000444 ) ;
#124 = AXIS2_PLACEMENT_3D ( 'NONE', #82, #120, #163 ) ;
#125 = DIRECTION ( 'NONE',  ( -1.000000000000000000, 0.000000000000000000, 0.000000000000000000 ) ) ;
#126 = PERSON ( 'NEURÈENÝ', 'NEURÈENÝ', 'NEURÈENÝ', ('NEURÈENÝ'), ('NEURÈENÝ'), ('NEURÈENÝ') ) ;
#127 = DIRECTION ( 'NONE',  ( 0.000000000000000000, 0.000000000000000000, 1.000000000000000000 ) ) ;
#128 = APPLICATION_PROTOCOL_DEFINITION ( 'international standard', 'config_control_design', 1994, #234 ) ;
#129 = AXIS2_PLACEMENT_3D ( 'NONE', #18, #142, #182 ) ;
#130 = PERSON_AND_ORGANIZATION_ROLE ( 'design_owner' ) ;
#131 = AXIS2_PLACEMENT_3D ( 'NONE', #58, #63, #38 ) ;
#132 = DATE_AND_TIME ( #90, #16 ) ;
#133 = VECTOR ( 'NONE', #83, 1000.000000000000000 ) ;
#134 = CALENDAR_DATE ( 2023, 13, 2 ) ;
#135 = CC_DESIGN_PERSON_AND_ORGANIZATION_ASSIGNMENT ( #146, #12, ( #71 ) ) ;
#136 = VERTEX_POINT ( 'NONE', #157 ) ;
#137 = ADVANCED_FACE ( 'NONE', ( #101 ), #218, .T. ) ;
#138 = CIRCLE ( 'NONE', #213, 1.600000000000000089 ) ;
#139 = DIRECTION ( 'NONE',  ( 1.000000000000000000, 0.000000000000000000, 0.000000000000000000 ) ) ;
#140 = ORIENTED_EDGE ( 'NONE', *, *, #231, .T. ) ;
#141 = CARTESIAN_POINT ( 'NONE',  ( 3.000000000000000444, 3.673940397442060361E-16, 3.000000000000000000 ) ) ;
#142 = DIRECTION ( 'NONE',  ( 0.000000000000000000, 0.000000000000000000, 1.000000000000000000 ) ) ;
#143 = DIRECTION ( 'NONE',  ( 0.000000000000000000, 0.000000000000000000, 1.000000000000000000 ) ) ;
#144 = DIRECTION ( 'NONE',  ( -0.000000000000000000, -0.000000000000000000, -1.000000000000000000 ) ) ;
#145 = APPROVAL_DATE_TIME ( #132, #100 ) ;
#146 = PERSON_AND_ORGANIZATION ( #126, #5 ) ;
#147 = CIRCLE ( 'NONE', #32, 1.600000000000000089 ) ;
#148 = FACE_BOUND ( 'NONE', #174, .T. ) ;
#149 = PERSON_AND_ORGANIZATION ( #126, #5 ) ;
#150 = DATE_AND_TIME ( #94, #29 ) ;
#151 = ORIENTED_EDGE ( 'NONE', *, *, #179, .T. ) ;
#152 = CARTESIAN_POINT ( 'NONE',  ( 0.000000000000000000, 0.000000000000000000, 315.0000000000000000 ) ) ;
#153 = MANIFOLD_SOLID_BREP ( 'Pøidat vysunutím3', #207 ) ;
#154 = ORIENTED_EDGE ( 'NONE', *, *, #111, .F. ) ;
#155 = CALENDAR_DATE ( 2023, 13, 2 ) ;
#156 = ORIENTED_EDGE ( 'NONE', *, *, #179, .F. ) ;
#157 = CARTESIAN_POINT ( 'NONE',  ( -3.000000000000000444, 0.000000000000000000, 3.000000000000000000 ) ) ;
#158 = DIRECTION ( 'NONE',  ( 1.000000000000000000, 0.000000000000000000, 0.000000000000000000 ) ) ;
#159 = ADVANCED_FACE ( 'NONE', ( #177 ), #221, .T. ) ;
#160 = CARTESIAN_POINT ( 'NONE',  ( -3.000000000000000444, 0.000000000000000000, 0.000000000000000000 ) ) ;
#161 = CC_DESIGN_DATE_AND_TIME_ASSIGNMENT ( #239, #55, ( #71 ) ) ;
#162 = FACE_OUTER_BOUND ( 'NONE', #172, .T. ) ;
#163 = DIRECTION ( 'NONE',  ( 1.000000000000000000, 0.000000000000000000, 0.000000000000000000 ) ) ;
#164 = SECURITY_CLASSIFICATION_LEVEL ( 'unclassified' ) ;
#165 = EDGE_CURVE ( 'NONE', #136, #56, #102, .T. ) ;
#166 = APPROVAL_ROLE ( '' ) ;
#167 = CARTESIAN_POINT ( 'NONE',  ( 0.000000000000000000, 0.000000000000000000, 3.000000000000000000 ) ) ;
#168 = CALENDAR_DATE ( 2023, 13, 2 ) ;
#169 = COORDINATED_UNIVERSAL_TIME_OFFSET ( 1, 0, .AHEAD. ) ;
#170 = ORIENTED_EDGE ( 'NONE', *, *, #165, .T. ) ;
#171 = ORIENTED_EDGE ( 'NONE', *, *, #87, .T. ) ;
#172 = EDGE_LOOP ( 'NONE', ( #34, #15 ) ) ;
#173 = PRODUCT ( '22ea', '22ea', '', ( #189 ) ) ;
#174 = EDGE_LOOP ( 'NONE', ( #216, #13 ) ) ;
#175 =( GEOMETRIC_REPRESENTATION_CONTEXT ( 3 ) GLOBAL_UNCERTAINTY_ASSIGNED_CONTEXT ( ( #49 ) ) GLOBAL_UNIT_ASSIGNED_CONTEXT ( ( #65, #47, #26 ) ) REPRESENTATION_CONTEXT ( 'NONE', 'WORKASPACE' ) );
#176 = ORIENTED_EDGE ( 'NONE', *, *, #229, .T. ) ;
#177 = FACE_OUTER_BOUND ( 'NONE', #78, .T. ) ;
#178 = CARTESIAN_POINT ( 'NONE',  ( 0.000000000000000000, 0.000000000000000000, 3.000000000000000000 ) ) ;
#179 = EDGE_CURVE ( 'NONE', #52, #1, #14, .T. ) ;
#180 = LOCAL_TIME ( 17, 52, 31.00000000000000000, #74 ) ;
#181 = DIRECTION ( 'NONE',  ( 1.000000000000000000, 0.000000000000000000, 0.000000000000000000 ) ) ;
#182 = DIRECTION ( 'NONE',  ( 1.000000000000000000, 0.000000000000000000, -0.000000000000000000 ) ) ;
#183 = ADVANCED_BREP_SHAPE_REPRESENTATION ( '22ea', ( #153, #33 ), #175 ) ;
#184 = FACE_OUTER_BOUND ( 'NONE', #235, .T. ) ;
#185 = AXIS2_PLACEMENT_3D ( 'NONE', #84, #103, #158 ) ;
#186 = AXIS2_PLACEMENT_3D ( 'NONE', #167, #107, #248 ) ;
#187 = PERSON_AND_ORGANIZATION ( #126, #5 ) ;
#188 = PERSON_AND_ORGANIZATION ( #126, #5 ) ;
#189 = MECHANICAL_CONTEXT ( 'NONE', #79, 'mechanical' ) ;
#190 = APPROVAL_PERSON_ORGANIZATION ( #227, #100, #230 ) ;
#191 = DIRECTION ( 'NONE',  ( 1.000000000000000000, 0.000000000000000000, 0.000000000000000000 ) ) ;
#192 = ORIENTED_EDGE ( 'NONE', *, *, #112, .T. ) ;
#193 = EDGE_CURVE ( 'NONE', #56, #117, #219, .T. ) ;
#194 = ORIENTED_EDGE ( 'NONE', *, *, #165, .F. ) ;
#195 = AXIS2_PLACEMENT_3D ( 'NONE', #247, #62, #181 ) ;
#196 = CARTESIAN_POINT ( 'NONE',  ( 1.600000000000000089, 1.959434878635765230E-16, 315.0000000000000000 ) ) ;
#197 = VERTEX_POINT ( 'NONE', #226 ) ;
#198 = PRODUCT_DEFINITION_FORMATION_WITH_SPECIFIED_SOURCE ( 'LIBOVOLNÝ', '', #173, .NOT_KNOWN. ) ;
#199 = CARTESIAN_POINT ( 'NONE',  ( 0.000000000000000000, 0.000000000000000000, 315.0000000000000000 ) ) ;
#200 = DIRECTION ( 'NONE',  ( -1.000000000000000000, 0.000000000000000000, 0.000000000000000000 ) ) ;
#201 = CARTESIAN_POINT ( 'NONE',  ( 3.000000000000000444, 3.673940397442060361E-16, 0.000000000000000000 ) ) ;
#202 = CIRCLE ( 'NONE', #124, 3.000000000000000444 ) ;
#203 = CIRCLE ( 'NONE', #131, 1.600000000000000089 ) ;
#204 = DIRECTION ( 'NONE',  ( 1.000000000000000000, 0.000000000000000000, 0.000000000000000000 ) ) ;
#205 = DIRECTION ( 'NONE',  ( 1.000000000000000000, 0.000000000000000000, 0.000000000000000000 ) ) ;
#206 = PERSON_AND_ORGANIZATION ( #126, #5 ) ;
#207 = CLOSED_SHELL ( 'NONE', ( #137, #240, #77, #252, #59, #238, #159 ) ) ;
#208 = CARTESIAN_POINT ( 'NONE',  ( 0.000000000000000000, 0.000000000000000000, 3.000000000000000000 ) ) ;
#209 = CARTESIAN_POINT ( 'NONE',  ( 0.000000000000000000, 0.000000000000000000, 0.000000000000000000 ) ) ;
#210 = EDGE_CURVE ( 'NONE', #197, #254, #203, .T. ) ;
#211 = PERSON_AND_ORGANIZATION_ROLE ( 'creator' ) ;
#212 = CC_DESIGN_PERSON_AND_ORGANIZATION_ASSIGNMENT ( #23, #85, ( #198 ) ) ;
#213 = AXIS2_PLACEMENT_3D ( 'NONE', #152, #54, #139 ) ;
#214 = APPROVAL_ROLE ( '' ) ;
#215 = ORIENTED_EDGE ( 'NONE', *, *, #121, .T. ) ;
#216 = ORIENTED_EDGE ( 'NONE', *, *, #67, .F. ) ;
#217 = APPROVAL_STATUS ( 'not_yet_approved' ) ;
#218 = CYLINDRICAL_SURFACE ( 'NONE', #246, 1.600000000000000089 ) ;
#219 = CIRCLE ( 'NONE', #195, 3.000000000000000444 ) ;
#220 = DIRECTION ( 'NONE',  ( -0.000000000000000000, -0.000000000000000000, -1.000000000000000000 ) ) ;
#221 = PLANE ( 'NONE',  #28 ) ;
#222 = PRODUCT_DEFINITION_SHAPE ( 'NONE', 'NONE',  #25 ) ;
#223 = DIRECTION ( 'NONE',  ( 1.000000000000000000, 0.000000000000000000, 0.000000000000000000 ) ) ;
#224 = AXIS2_PLACEMENT_3D ( 'NONE', #20, #143, #223 ) ;
#225 = LOCAL_TIME ( 17, 52, 31.00000000000000000, #91 ) ;
#226 = CARTESIAN_POINT ( 'NONE',  ( 1.600000000000000089, 1.959434878635765230E-16, 3.000000000000000000 ) ) ;
#227 = PERSON_AND_ORGANIZATION ( #126, #5 ) ;
#228 = DIRECTION ( 'NONE',  ( 0.000000000000000000, 0.000000000000000000, 1.000000000000000000 ) ) ;
#229 = EDGE_CURVE ( 'NONE', #253, #117, #81, .T. ) ;
#230 = APPROVAL_ROLE ( '' ) ;
#231 = EDGE_CURVE ( 'NONE', #117, #56, #53, .T. ) ;
#232 = VECTOR ( 'NONE', #7, 1000.000000000000000 ) ;
#233 = CC_DESIGN_APPROVAL ( #69, ( #71 ) ) ;
#234 = APPLICATION_CONTEXT ( 'configuration controlled 3d designs of mechanical parts and assemblies' ) ;
#235 = EDGE_LOOP ( 'NONE', ( #154, #119, #215, #31 ) ) ;
#236 = SHAPE_DEFINITION_REPRESENTATION ( #222, #183 ) ;
#237 = AXIS2_PLACEMENT_3D ( 'NONE', #178, #99, #98 ) ;
#238 = ADVANCED_FACE ( 'NONE', ( #184 ), #122, .T. ) ;
#239 = DATE_AND_TIME ( #155, #180 ) ;
#240 = ADVANCED_FACE ( 'NONE', ( #243 ), #60, .T. ) ;
#241 = ORIENTED_EDGE ( 'NONE', *, *, #111, .T. ) ;
#242 = CARTESIAN_POINT ( 'NONE',  ( -3.000000000000000444, 0.000000000000000000, 3.000000000000000000 ) ) ;
#243 = FACE_OUTER_BOUND ( 'NONE', #73, .T. ) ;
#244 = PLANE ( 'NONE',  #129 ) ;
#245 = LINE ( 'NONE', #80, #232 ) ;
#246 = AXIS2_PLACEMENT_3D ( 'NONE', #199, #36, #125 ) ;
#247 = CARTESIAN_POINT ( 'NONE',  ( 0.000000000000000000, 0.000000000000000000, 0.000000000000000000 ) ) ;
#248 = DIRECTION ( 'NONE',  ( -1.000000000000000000, 0.000000000000000000, 0.000000000000000000 ) ) ;
#249 = PERSON_AND_ORGANIZATION_ROLE ( 'design_supplier' ) ;
#250 = DATE_AND_TIME ( #168, #225 ) ;
#251 = DATE_AND_TIME ( #134, #110 ) ;
#252 = ADVANCED_FACE ( 'NONE', ( #148, #86 ), #88, .T. ) ;
#253 = VERTEX_POINT ( 'NONE', #109 ) ;
#254 = VERTEX_POINT ( 'NONE', #64 ) ;
#255 = EDGE_LOOP ( 'NONE', ( #156, #241, #115, #95 ) ) ;
ENDSEC;
END-ISO-10303-21;
