ISO-10303-21;
HEADER;
FILE_DESCRIPTION (( 'STEP AP203' ),
    '1' );
FILE_NAME ('8983.STEP',
    '2023-02-13T15:43:10',
    ( '' ),
    ( '' ),
    'SwSTEP 2.0',
    'SolidWorks 2019',
    '' );
FILE_SCHEMA (( 'CONFIG_CONTROL_DESIGN' ));
ENDSEC;

DATA;
#1 = ORIENTED_EDGE ( 'NONE', *, *, #23, .T. ) ;
#2 = LOCAL_TIME ( 16, 43, 10.00000000000000000, #102 ) ;
#3 = EDGE_CURVE ( 'NONE', #59, #251, #82, .T. ) ;
#4 = PRODUCT ( '8983', '8983', '', ( #70 ) ) ;
#5 = AXIS2_PLACEMENT_3D ( 'NONE', #155, #110, #68 ) ;
#6 = APPROVAL_DATE_TIME ( #16, #197 ) ;
#7 = APPROVAL ( #128, 'NEURÈENÝ' ) ;
#8 = DIRECTION ( 'NONE',  ( 0.000000000000000000, 0.000000000000000000, 1.000000000000000000 ) ) ;
#9 = VERTEX_POINT ( 'NONE', #88 ) ;
#10 = APPROVAL_STATUS ( 'not_yet_approved' ) ;
#11 = CARTESIAN_POINT ( 'NONE',  ( 0.000000000000000000, 0.000000000000000000, 5.000000000000000000 ) ) ;
#12 = PLANE ( 'NONE',  #13 ) ;
#13 = AXIS2_PLACEMENT_3D ( 'NONE', #120, #8, #241 ) ;
#14 = MANIFOLD_SOLID_BREP ( 'Pøidat vysunutím3', #79 ) ;
#15 = EDGE_LOOP ( 'NONE', ( #206, #252, #1, #231 ) ) ;
#16 = DATE_AND_TIME ( #230, #21 ) ;
#17 = ORIENTED_EDGE ( 'NONE', *, *, #158, .T. ) ;
#18 = ORIENTED_EDGE ( 'NONE', *, *, #105, .F. ) ;
#19 = DIRECTION ( 'NONE',  ( -0.000000000000000000, -0.000000000000000000, -1.000000000000000000 ) ) ;
#20 = ORIENTED_EDGE ( 'NONE', *, *, #149, .T. ) ;
#21 = LOCAL_TIME ( 16, 43, 10.00000000000000000, #51 ) ;
#22 = EDGE_LOOP ( 'NONE', ( #156, #237 ) ) ;
#23 = EDGE_CURVE ( 'NONE', #251, #198, #246, .T. ) ;
#24 = FACE_OUTER_BOUND ( 'NONE', #15, .T. ) ;
#25 = EDGE_CURVE ( 'NONE', #215, #130, #85, .T. ) ;
#26 = DIRECTION ( 'NONE',  ( 0.000000000000000000, 0.000000000000000000, 1.000000000000000000 ) ) ;
#27 = VECTOR ( 'NONE', #161, 1000.000000000000000 ) ;
#28 = CARTESIAN_POINT ( 'NONE',  ( 0.000000000000000000, 0.000000000000000000, 0.000000000000000000 ) ) ;
#29 = ADVANCED_FACE ( 'NONE', ( #76 ), #180, .T. ) ;
#30 = DIRECTION ( 'NONE',  ( 1.000000000000000000, 0.000000000000000000, 0.000000000000000000 ) ) ;
#31 = DIRECTION ( 'NONE',  ( 1.000000000000000000, 0.000000000000000000, 0.000000000000000000 ) ) ;
#32 = ORGANIZATION ( 'NEURÈENÝ', 'NEURÈENÝ', '' ) ;
#33 = PERSON_AND_ORGANIZATION ( #112, #32 ) ;
#34 = CARTESIAN_POINT ( 'NONE',  ( 0.000000000000000000, 0.000000000000000000, 5.000000000000000000 ) ) ;
#35 = DIRECTION ( 'NONE',  ( 1.000000000000000000, 0.000000000000000000, 0.000000000000000000 ) ) ;
#36 = PERSON_AND_ORGANIZATION ( #112, #32 ) ;
#37 = EDGE_LOOP ( 'NONE', ( #108, #61, #92, #173 ) ) ;
#38 = CARTESIAN_POINT ( 'NONE',  ( -6.000000000000000888, 0.000000000000000000, 0.000000000000000000 ) ) ;
#39 = DIRECTION ( 'NONE',  ( -0.000000000000000000, -0.000000000000000000, -1.000000000000000000 ) ) ;
#40 = CC_DESIGN_APPROVAL ( #182, ( #163 ) ) ;
#41 = APPROVAL_ROLE ( '' ) ;
#42 = ORIENTED_EDGE ( 'NONE', *, *, #158, .F. ) ;
#43 = EDGE_LOOP ( 'NONE', ( #44, #211, #216, #109 ) ) ;
#44 = ORIENTED_EDGE ( 'NONE', *, *, #236, .F. ) ;
#45 = CARTESIAN_POINT ( 'NONE',  ( 0.000000000000000000, 0.000000000000000000, 5.000000000000000000 ) ) ;
#46 = CALENDAR_DATE ( 2023, 13, 2 ) ;
#47 = DIRECTION ( 'NONE',  ( 0.000000000000000000, 0.000000000000000000, 1.000000000000000000 ) ) ;
#48 = CIRCLE ( 'NONE', #192, 3.100000000000000089 ) ;
#49 = DIRECTION ( 'NONE',  ( 1.000000000000000000, 0.000000000000000000, -0.000000000000000000 ) ) ;
#50 = LOCAL_TIME ( 16, 43, 10.00000000000000000, #220 ) ;
#51 = COORDINATED_UNIVERSAL_TIME_OFFSET ( 1, 0, .AHEAD. ) ;
#52 = LINE ( 'NONE', #123, #95 ) ;
#53 = EDGE_CURVE ( 'NONE', #77, #215, #185, .T. ) ;
#54 = PLANE ( 'NONE',  #98 ) ;
#55 = CARTESIAN_POINT ( 'NONE',  ( 0.000000000000000000, 0.000000000000000000, 125.0000000000000000 ) ) ;
#56 = AXIS2_PLACEMENT_3D ( 'NONE', #55, #19, #151 ) ;
#57 = AXIS2_PLACEMENT_3D ( 'NONE', #135, #114, #254 ) ;
#58 = CC_DESIGN_DATE_AND_TIME_ASSIGNMENT ( #119, #164, ( #163 ) ) ;
#59 = VERTEX_POINT ( 'NONE', #217 ) ;
#60 = CARTESIAN_POINT ( 'NONE',  ( -3.100000000000000089, 0.000000000000000000, 5.000000000000000000 ) ) ;
#61 = ORIENTED_EDGE ( 'NONE', *, *, #99, .F. ) ;
#62 = FACE_OUTER_BOUND ( 'NONE', #137, .T. ) ;
#63 = CC_DESIGN_PERSON_AND_ORGANIZATION_ASSIGNMENT ( #141, #174, ( #4 ) ) ;
#64 = PERSON_AND_ORGANIZATION ( #112, #32 ) ;
#65 = CARTESIAN_POINT ( 'NONE',  ( 0.000000000000000000, 0.000000000000000000, 0.000000000000000000 ) ) ;
#66 = CARTESIAN_POINT ( 'NONE',  ( 0.000000000000000000, 0.000000000000000000, 0.000000000000000000 ) ) ;
#67 = CC_DESIGN_APPROVAL ( #197, ( #207 ) ) ;
#68 = DIRECTION ( 'NONE',  ( -1.000000000000000000, 0.000000000000000000, 0.000000000000000000 ) ) ;
#69 = VECTOR ( 'NONE', #39, 1000.000000000000000 ) ;
#70 = MECHANICAL_CONTEXT ( 'NONE', #127, 'mechanical' ) ;
#71 = AXIS2_PLACEMENT_3D ( 'NONE', #245, #150, #178 ) ;
#72 = VERTEX_POINT ( 'NONE', #60 ) ;
#73 = CIRCLE ( 'NONE', #84, 6.000000000000000888 ) ;
#74 = APPLICATION_PROTOCOL_DEFINITION ( 'international standard', 'config_control_design', 1994, #127 ) ;
#75 = ADVANCED_FACE ( 'NONE', ( #24 ), #201, .T. ) ;
#76 = FACE_OUTER_BOUND ( 'NONE', #203, .T. ) ;
#77 = VERTEX_POINT ( 'NONE', #188 ) ;
#78 = EDGE_CURVE ( 'NONE', #198, #251, #226, .T. ) ;
#79 = CLOSED_SHELL ( 'NONE', ( #218, #75, #229, #136, #162, #168, #29 ) ) ;
#80 = AXIS2_PLACEMENT_3D ( 'NONE', #65, #204, #30 ) ;
#81 = PERSON_AND_ORGANIZATION_ROLE ( 'creator' ) ;
#82 = LINE ( 'NONE', #225, #69 ) ;
#83 = APPROVAL_ROLE ( '' ) ;
#84 = AXIS2_PLACEMENT_3D ( 'NONE', #11, #101, #183 ) ;
#85 = LINE ( 'NONE', #115, #27 ) ;
#86 = DIRECTION ( 'NONE',  ( 0.000000000000000000, 0.000000000000000000, 1.000000000000000000 ) ) ;
#87 = FACE_OUTER_BOUND ( 'NONE', #129, .T. ) ;
#88 = CARTESIAN_POINT ( 'NONE',  ( -6.000000000000000888, 0.000000000000000000, 5.000000000000000000 ) ) ;
#89 = AXIS2_PLACEMENT_3D ( 'NONE', #200, #159, #235 ) ;
#90 = LOCAL_TIME ( 16, 43, 10.00000000000000000, #172 ) ;
#91 = PERSON_AND_ORGANIZATION ( #112, #32 ) ;
#92 = ORIENTED_EDGE ( 'NONE', *, *, #187, .T. ) ;
#93 = DESIGN_CONTEXT ( 'detailed design', #148, 'design' ) ;
#94 = CYLINDRICAL_SURFACE ( 'NONE', #56, 3.100000000000000089 ) ;
#95 = VECTOR ( 'NONE', #186, 1000.000000000000000 ) ;
#96 = ORIENTED_EDGE ( 'NONE', *, *, #53, .T. ) ;
#97 = DIRECTION ( 'NONE',  ( -1.000000000000000000, 0.000000000000000000, 0.000000000000000000 ) ) ;
#98 = AXIS2_PLACEMENT_3D ( 'NONE', #66, #202, #49 ) ;
#99 = EDGE_CURVE ( 'NONE', #9, #59, #73, .T. ) ;
#100 = PERSON_AND_ORGANIZATION_ROLE ( 'classification_officer' ) ;
#101 = DIRECTION ( 'NONE',  ( 0.000000000000000000, 0.000000000000000000, 1.000000000000000000 ) ) ;
#102 = COORDINATED_UNIVERSAL_TIME_OFFSET ( 1, 0, .AHEAD. ) ;
#103 = CARTESIAN_POINT ( 'NONE',  ( 0.000000000000000000, 0.000000000000000000, 125.0000000000000000 ) ) ;
#104 = DIRECTION ( 'NONE',  ( -0.000000000000000000, -0.000000000000000000, -1.000000000000000000 ) ) ;
#105 = EDGE_CURVE ( 'NONE', #130, #72, #138, .T. ) ;
#106 = PERSON_AND_ORGANIZATION_ROLE ( 'creator' ) ;
#107 = SECURITY_CLASSIFICATION_LEVEL ( 'unclassified' ) ;
#108 = ORIENTED_EDGE ( 'NONE', *, *, #3, .F. ) ;
#109 = ORIENTED_EDGE ( 'NONE', *, *, #149, .F. ) ;
#110 = DIRECTION ( 'NONE',  ( -0.000000000000000000, -0.000000000000000000, -1.000000000000000000 ) ) ;
#111 = AXIS2_PLACEMENT_3D ( 'NONE', #45, #199, #97 ) ;
#112 = PERSON ( 'NEURÈENÝ', 'NEURÈENÝ', 'NEURÈENÝ', ('NEURÈENÝ'), ('NEURÈENÝ'), ('NEURÈENÝ') ) ;
#113 = CC_DESIGN_PERSON_AND_ORGANIZATION_ASSIGNMENT ( #152, #81, ( #131 ) ) ;
#114 = DIRECTION ( 'NONE',  ( 0.000000000000000000, 0.000000000000000000, 1.000000000000000000 ) ) ;
#115 = CARTESIAN_POINT ( 'NONE',  ( 3.100000000000000089, 3.796405077356794918E-16, 125.0000000000000000 ) ) ;
#116 = LOCAL_TIME ( 16, 43, 10.00000000000000000, #249 ) ;
#117 = CC_DESIGN_PERSON_AND_ORGANIZATION_ASSIGNMENT ( #64, #193, ( #131 ) ) ;
#118 = CARTESIAN_POINT ( 'NONE',  ( 0.000000000000000000, 0.000000000000000000, 0.000000000000000000 ) ) ;
#119 = DATE_AND_TIME ( #46, #116 ) ;
#120 = CARTESIAN_POINT ( 'NONE',  ( 0.000000000000000000, 0.000000000000000000, 5.000000000000000000 ) ) ;
#121 = PERSON_AND_ORGANIZATION ( #112, #32 ) ;
#122 = CYLINDRICAL_SURFACE ( 'NONE', #233, 3.100000000000000089 ) ;
#123 = CARTESIAN_POINT ( 'NONE',  ( -6.000000000000000888, 0.000000000000000000, 5.000000000000000000 ) ) ;
#124 = UNCERTAINTY_MEASURE_WITH_UNIT (LENGTH_MEASURE( 1.000000000000000082E-05 ), #190, 'distance_accuracy_value', 'NONE');
#125 = DATE_AND_TIME ( #144, #2 ) ;
#126 = ORIENTED_EDGE ( 'NONE', *, *, #78, .F. ) ;
#127 = APPLICATION_CONTEXT ( 'configuration controlled 3d designs of mechanical parts and assemblies' ) ;
#128 = APPROVAL_STATUS ( 'not_yet_approved' ) ;
#129 = EDGE_LOOP ( 'NONE', ( #126, #247 ) ) ;
#130 = VERTEX_POINT ( 'NONE', #243 ) ;
#131 = PRODUCT_DEFINITION_FORMATION_WITH_SPECIFIED_SOURCE ( 'LIBOVOLNÝ', '', #4, .NOT_KNOWN. ) ;
#132 = CARTESIAN_POINT ( 'NONE',  ( 6.000000000000000888, 7.347880794884120722E-16, 0.000000000000000000 ) ) ;
#133 = CIRCLE ( 'NONE', #71, 3.100000000000000089 ) ;
#134 = AXIS2_PLACEMENT_3D ( 'NONE', #28, #143, #35 ) ;
#135 = CARTESIAN_POINT ( 'NONE',  ( 0.000000000000000000, 0.000000000000000000, 125.0000000000000000 ) ) ;
#136 = ADVANCED_FACE ( 'NONE', ( #208, #140 ), #12, .T. ) ;
#137 = EDGE_LOOP ( 'NONE', ( #195, #177, #20, #17 ) ) ;
#138 = CIRCLE ( 'NONE', #234, 3.100000000000000089 ) ;
#139 = CARTESIAN_POINT ( 'NONE',  ( 0.000000000000000000, 0.000000000000000000, 5.000000000000000000 ) ) ;
#140 = FACE_OUTER_BOUND ( 'NONE', #22, .T. ) ;
#141 = PERSON_AND_ORGANIZATION ( #112, #32 ) ;
#142 = DIRECTION ( 'NONE',  ( 1.000000000000000000, 0.000000000000000000, 0.000000000000000000 ) ) ;
#143 = DIRECTION ( 'NONE',  ( 0.000000000000000000, 0.000000000000000000, 1.000000000000000000 ) ) ;
#144 = CALENDAR_DATE ( 2023, 13, 2 ) ;
#145 = DIRECTION ( 'NONE',  ( -0.000000000000000000, -0.000000000000000000, -1.000000000000000000 ) ) ;
#146 = CC_DESIGN_APPROVAL ( #7, ( #131 ) ) ;
#147 = DIRECTION ( 'NONE',  ( -1.000000000000000000, 0.000000000000000000, 0.000000000000000000 ) ) ;
#148 = APPLICATION_CONTEXT ( 'configuration controlled 3d designs of mechanical parts and assemblies' ) ;
#149 = EDGE_CURVE ( 'NONE', #77, #72, #169, .T. ) ;
#150 = DIRECTION ( 'NONE',  ( 0.000000000000000000, 0.000000000000000000, 1.000000000000000000 ) ) ;
#151 = DIRECTION ( 'NONE',  ( -1.000000000000000000, 0.000000000000000000, 0.000000000000000000 ) ) ;
#152 = PERSON_AND_ORGANIZATION ( #112, #32 ) ;
#153 = APPROVAL_PERSON_ORGANIZATION ( #36, #197, #242 ) ;
#154 = PERSON_AND_ORGANIZATION ( #112, #32 ) ;
#155 = CARTESIAN_POINT ( 'NONE',  ( 0.000000000000000000, 0.000000000000000000, 5.000000000000000000 ) ) ;
#156 = ORIENTED_EDGE ( 'NONE', *, *, #99, .T. ) ;
#157 = CYLINDRICAL_SURFACE ( 'NONE', #5, 6.000000000000000888 ) ;
#158 = EDGE_CURVE ( 'NONE', #72, #130, #48, .T. ) ;
#159 = DIRECTION ( 'NONE',  ( 0.000000000000000000, 0.000000000000000000, 1.000000000000000000 ) ) ;
#160 = VECTOR ( 'NONE', #104, 1000.000000000000000 ) ;
#161 = DIRECTION ( 'NONE',  ( -0.000000000000000000, -0.000000000000000000, -1.000000000000000000 ) ) ;
#162 = ADVANCED_FACE ( 'NONE', ( #87 ), #54, .F. ) ;
#163 = SECURITY_CLASSIFICATION ( '', '', #107 ) ;
#164 = DATE_TIME_ROLE ( 'classification_date' ) ;
#165 = DIRECTION ( 'NONE',  ( 1.000000000000000000, 0.000000000000000000, 0.000000000000000000 ) ) ;
#166 = ADVANCED_BREP_SHAPE_REPRESENTATION ( '8983', ( #14, #80 ), #181 ) ;
#167 = DIRECTION ( 'NONE',  ( 1.000000000000000000, 0.000000000000000000, 0.000000000000000000 ) ) ;
#168 = ADVANCED_FACE ( 'NONE', ( #62 ), #122, .T. ) ;
#169 = LINE ( 'NONE', #184, #160 ) ;
#170 = SHAPE_DEFINITION_REPRESENTATION ( #219, #166 ) ;
#171 = AXIS2_PLACEMENT_3D ( 'NONE', #118, #205, #31 ) ;
#172 = COORDINATED_UNIVERSAL_TIME_OFFSET ( 1, 0, .AHEAD. ) ;
#173 = ORIENTED_EDGE ( 'NONE', *, *, #78, .T. ) ;
#174 = PERSON_AND_ORGANIZATION_ROLE ( 'design_owner' ) ;
#175 = APPROVAL_DATE_TIME ( #212, #7 ) ;
#176 = EDGE_LOOP ( 'NONE', ( #42, #18 ) ) ;
#177 = ORIENTED_EDGE ( 'NONE', *, *, #53, .F. ) ;
#178 = DIRECTION ( 'NONE',  ( 1.000000000000000000, 0.000000000000000000, 0.000000000000000000 ) ) ;
#179 = CC_DESIGN_PERSON_AND_ORGANIZATION_ASSIGNMENT ( #91, #100, ( #163 ) ) ;
#180 = PLANE ( 'NONE',  #57 ) ;
#181 =( GEOMETRIC_REPRESENTATION_CONTEXT ( 3 ) GLOBAL_UNCERTAINTY_ASSIGNED_CONTEXT ( ( #124 ) ) GLOBAL_UNIT_ASSIGNED_CONTEXT ( ( #190, #213, #210 ) ) REPRESENTATION_CONTEXT ( 'NONE', 'WORKASPACE' ) );
#182 = APPROVAL ( #10, 'NEURÈENÝ' ) ;
#183 = DIRECTION ( 'NONE',  ( 1.000000000000000000, 0.000000000000000000, 0.000000000000000000 ) ) ;
#184 = CARTESIAN_POINT ( 'NONE',  ( -3.100000000000000089, 0.000000000000000000, 125.0000000000000000 ) ) ;
#185 = CIRCLE ( 'NONE', #89, 3.100000000000000089 ) ;
#186 = DIRECTION ( 'NONE',  ( -0.000000000000000000, -0.000000000000000000, -1.000000000000000000 ) ) ;
#187 = EDGE_CURVE ( 'NONE', #9, #198, #52, .T. ) ;
#188 = CARTESIAN_POINT ( 'NONE',  ( -3.100000000000000089, 0.000000000000000000, 125.0000000000000000 ) ) ;
#189 = AXIS2_PLACEMENT_3D ( 'NONE', #139, #26, #167 ) ;
#190 =( LENGTH_UNIT ( ) NAMED_UNIT ( * ) SI_UNIT ( .MILLI., .METRE. ) );
#191 = CC_DESIGN_PERSON_AND_ORGANIZATION_ASSIGNMENT ( #33, #106, ( #207 ) ) ;
#192 = AXIS2_PLACEMENT_3D ( 'NONE', #223, #86, #165 ) ;
#193 = PERSON_AND_ORGANIZATION_ROLE ( 'design_supplier' ) ;
#194 = APPROVAL_PERSON_ORGANIZATION ( #121, #182, #83 ) ;
#195 = ORIENTED_EDGE ( 'NONE', *, *, #25, .F. ) ;
#196 = FACE_OUTER_BOUND ( 'NONE', #37, .T. ) ;
#197 = APPROVAL ( #248, 'NEURÈENÝ' ) ;
#198 = VERTEX_POINT ( 'NONE', #38 ) ;
#199 = DIRECTION ( 'NONE',  ( -0.000000000000000000, -0.000000000000000000, -1.000000000000000000 ) ) ;
#200 = CARTESIAN_POINT ( 'NONE',  ( 0.000000000000000000, 0.000000000000000000, 125.0000000000000000 ) ) ;
#201 = CYLINDRICAL_SURFACE ( 'NONE', #111, 6.000000000000000888 ) ;
#202 = DIRECTION ( 'NONE',  ( 0.000000000000000000, 0.000000000000000000, 1.000000000000000000 ) ) ;
#203 = EDGE_LOOP ( 'NONE', ( #96, #255 ) ) ;
#204 = DIRECTION ( 'NONE',  ( 0.000000000000000000, 0.000000000000000000, 1.000000000000000000 ) ) ;
#205 = DIRECTION ( 'NONE',  ( 0.000000000000000000, 0.000000000000000000, 1.000000000000000000 ) ) ;
#206 = ORIENTED_EDGE ( 'NONE', *, *, #214, .F. ) ;
#207 = PRODUCT_DEFINITION ( 'NEZNÁMÝ', '', #131, #93 ) ;
#208 = FACE_BOUND ( 'NONE', #176, .T. ) ;
#209 = APPROVAL_DATE_TIME ( #227, #182 ) ;
#210 =( NAMED_UNIT ( * ) SI_UNIT ( $, .STERADIAN. ) SOLID_ANGLE_UNIT ( ) );
#211 = ORIENTED_EDGE ( 'NONE', *, *, #25, .T. ) ;
#212 = DATE_AND_TIME ( #240, #50 ) ;
#213 =( NAMED_UNIT ( * ) PLANE_ANGLE_UNIT ( ) SI_UNIT ( $, .RADIAN. ) );
#214 = EDGE_CURVE ( 'NONE', #59, #9, #238, .T. ) ;
#215 = VERTEX_POINT ( 'NONE', #239 ) ;
#216 = ORIENTED_EDGE ( 'NONE', *, *, #105, .T. ) ;
#217 = CARTESIAN_POINT ( 'NONE',  ( 6.000000000000000888, 7.347880794884120722E-16, 5.000000000000000000 ) ) ;
#218 = ADVANCED_FACE ( 'NONE', ( #244 ), #94, .T. ) ;
#219 = PRODUCT_DEFINITION_SHAPE ( 'NONE', 'NONE',  #207 ) ;
#220 = COORDINATED_UNIVERSAL_TIME_OFFSET ( 1, 0, .AHEAD. ) ;
#221 = APPLICATION_PROTOCOL_DEFINITION ( 'international standard', 'config_control_design', 1994, #148 ) ;
#222 = DATE_TIME_ROLE ( 'creation_date' ) ;
#223 = CARTESIAN_POINT ( 'NONE',  ( 0.000000000000000000, 0.000000000000000000, 5.000000000000000000 ) ) ;
#224 = CALENDAR_DATE ( 2023, 13, 2 ) ;
#225 = CARTESIAN_POINT ( 'NONE',  ( 6.000000000000000888, 7.347880794884120722E-16, 5.000000000000000000 ) ) ;
#226 = CIRCLE ( 'NONE', #171, 6.000000000000000888 ) ;
#227 = DATE_AND_TIME ( #224, #90 ) ;
#228 = CC_DESIGN_SECURITY_CLASSIFICATION ( #163, ( #131 ) ) ;
#229 = ADVANCED_FACE ( 'NONE', ( #196 ), #157, .T. ) ;
#230 = CALENDAR_DATE ( 2023, 13, 2 ) ;
#231 = ORIENTED_EDGE ( 'NONE', *, *, #187, .F. ) ;
#232 = CC_DESIGN_DATE_AND_TIME_ASSIGNMENT ( #125, #222, ( #207 ) ) ;
#233 = AXIS2_PLACEMENT_3D ( 'NONE', #103, #145, #147 ) ;
#234 = AXIS2_PLACEMENT_3D ( 'NONE', #34, #47, #142 ) ;
#235 = DIRECTION ( 'NONE',  ( 1.000000000000000000, 0.000000000000000000, 0.000000000000000000 ) ) ;
#236 = EDGE_CURVE ( 'NONE', #215, #77, #133, .T. ) ;
#237 = ORIENTED_EDGE ( 'NONE', *, *, #214, .T. ) ;
#238 = CIRCLE ( 'NONE', #189, 6.000000000000000888 ) ;
#239 = CARTESIAN_POINT ( 'NONE',  ( 3.100000000000000089, 3.796405077356794918E-16, 125.0000000000000000 ) ) ;
#240 = CALENDAR_DATE ( 2023, 13, 2 ) ;
#241 = DIRECTION ( 'NONE',  ( 1.000000000000000000, 0.000000000000000000, -0.000000000000000000 ) ) ;
#242 = APPROVAL_ROLE ( '' ) ;
#243 = CARTESIAN_POINT ( 'NONE',  ( 3.100000000000000089, 3.796405077356794918E-16, 5.000000000000000000 ) ) ;
#244 = FACE_OUTER_BOUND ( 'NONE', #43, .T. ) ;
#245 = CARTESIAN_POINT ( 'NONE',  ( 0.000000000000000000, 0.000000000000000000, 125.0000000000000000 ) ) ;
#246 = CIRCLE ( 'NONE', #134, 6.000000000000000888 ) ;
#247 = ORIENTED_EDGE ( 'NONE', *, *, #23, .F. ) ;
#248 = APPROVAL_STATUS ( 'not_yet_approved' ) ;
#249 = COORDINATED_UNIVERSAL_TIME_OFFSET ( 1, 0, .AHEAD. ) ;
#250 = PRODUCT_RELATED_PRODUCT_CATEGORY ( 'detail', '', ( #4 ) ) ;
#251 = VERTEX_POINT ( 'NONE', #132 ) ;
#252 = ORIENTED_EDGE ( 'NONE', *, *, #3, .T. ) ;
#253 = APPROVAL_PERSON_ORGANIZATION ( #154, #7, #41 ) ;
#254 = DIRECTION ( 'NONE',  ( 1.000000000000000000, 0.000000000000000000, -0.000000000000000000 ) ) ;
#255 = ORIENTED_EDGE ( 'NONE', *, *, #236, .T. ) ;
ENDSEC;
END-ISO-10303-21;
