ISO-10303-21;
HEADER;
FILE_DESCRIPTION (( 'STEP AP203' ),
    '1' );
FILE_NAME ('b8db.STEP',
    '2023-02-13T17:16:17',
    ( '' ),
    ( '' ),
    'SwSTEP 2.0',
    'SolidWorks 2019',
    '' );
FILE_SCHEMA (( 'CONFIG_CONTROL_DESIGN' ));
ENDSEC;

DATA;
#1 = APPROVAL_PERSON_ORGANIZATION ( #117, #154, #119 ) ;
#2 = CARTESIAN_POINT ( 'NONE',  ( 0.000000000000000000, 0.000000000000000000, 125.0000000000000000 ) ) ;
#3 = CARTESIAN_POINT ( 'NONE',  ( -0.9000000000000000222, 0.000000000000000000, 1.500000000000000000 ) ) ;
#4 = VERTEX_POINT ( 'NONE', #3 ) ;
#5 = ORIENTED_EDGE ( 'NONE', *, *, #245, .F. ) ;
#6 = CALENDAR_DATE ( 2023, 13, 2 ) ;
#7 = DIRECTION ( 'NONE',  ( 0.000000000000000000, 0.000000000000000000, 1.000000000000000000 ) ) ;
#8 = CARTESIAN_POINT ( 'NONE',  ( 0.000000000000000000, 0.000000000000000000, 125.0000000000000000 ) ) ;
#9 = APPROVAL_DATE_TIME ( #51, #90 ) ;
#10 = DIRECTION ( 'NONE',  ( 0.000000000000000000, 0.000000000000000000, 1.000000000000000000 ) ) ;
#11 = AXIS2_PLACEMENT_3D ( 'NONE', #8, #10, #89 ) ;
#12 = CARTESIAN_POINT ( 'NONE',  ( 2.000000000000000000, 2.449293598294706414E-16, 0.000000000000000000 ) ) ;
#13 = LINE ( 'NONE', #128, #130 ) ;
#14 = DIRECTION ( 'NONE',  ( 0.000000000000000000, 0.000000000000000000, 1.000000000000000000 ) ) ;
#15 = EDGE_CURVE ( 'NONE', #122, #21, #207, .T. ) ;
#16 = PERSON_AND_ORGANIZATION ( #195, #231 ) ;
#17 =( LENGTH_UNIT ( ) NAMED_UNIT ( * ) SI_UNIT ( .MILLI., .METRE. ) );
#18 = PERSON_AND_ORGANIZATION ( #195, #231 ) ;
#19 = PRODUCT_DEFINITION_FORMATION_WITH_SPECIFIED_SOURCE ( 'LIBOVOLNÝ', '', #175, .NOT_KNOWN. ) ;
#20 = APPROVAL_DATE_TIME ( #113, #154 ) ;
#21 = VERTEX_POINT ( 'NONE', #74 ) ;
#22 = SECURITY_CLASSIFICATION_LEVEL ( 'unclassified' ) ;
#23 = EDGE_LOOP ( 'NONE', ( #198, #201 ) ) ;
#24 = EDGE_LOOP ( 'NONE', ( #244, #163 ) ) ;
#25 = CC_DESIGN_APPROVAL ( #90, ( #50 ) ) ;
#26 = DATE_AND_TIME ( #148, #46 ) ;
#27 = CARTESIAN_POINT ( 'NONE',  ( 0.000000000000000000, 0.000000000000000000, 125.0000000000000000 ) ) ;
#28 = DIRECTION ( 'NONE',  ( 1.000000000000000000, 0.000000000000000000, -0.000000000000000000 ) ) ;
#29 = DIRECTION ( 'NONE',  ( -0.000000000000000000, -0.000000000000000000, -1.000000000000000000 ) ) ;
#30 = CIRCLE ( 'NONE', #45, 2.000000000000000000 ) ;
#31 = CARTESIAN_POINT ( 'NONE',  ( 0.9000000000000000222, 1.102182119232617788E-16, 125.0000000000000000 ) ) ;
#32 = CARTESIAN_POINT ( 'NONE',  ( 0.9000000000000000222, 1.102182119232617788E-16, 1.500000000000000000 ) ) ;
#33 = EDGE_CURVE ( 'NONE', #101, #122, #54, .T. ) ;
#34 = ADVANCED_FACE ( 'NONE', ( #109, #249 ), #110, .T. ) ;
#35 = APPROVAL_ROLE ( '' ) ;
#36 = LOCAL_TIME ( 18, 16, 17.00000000000000000, #193 ) ;
#37 = CALENDAR_DATE ( 2023, 13, 2 ) ;
#38 = AXIS2_PLACEMENT_3D ( 'NONE', #252, #230, #147 ) ;
#39 = ORIENTED_EDGE ( 'NONE', *, *, #197, .F. ) ;
#40 = ADVANCED_FACE ( 'NONE', ( #73 ), #71, .T. ) ;
#41 = EDGE_CURVE ( 'NONE', #241, #21, #13, .T. ) ;
#42 = AXIS2_PLACEMENT_3D ( 'NONE', #133, #29, #246 ) ;
#43 = ORIENTED_EDGE ( 'NONE', *, *, #205, .F. ) ;
#44 = APPLICATION_PROTOCOL_DEFINITION ( 'international standard', 'config_control_design', 1994, #170 ) ;
#45 = AXIS2_PLACEMENT_3D ( 'NONE', #52, #129, #91 ) ;
#46 = LOCAL_TIME ( 18, 16, 17.00000000000000000, #226 ) ;
#47 = ORIENTED_EDGE ( 'NONE', *, *, #135, .F. ) ;
#48 = VECTOR ( 'NONE', #111, 1000.000000000000000 ) ;
#49 = DIRECTION ( 'NONE',  ( 1.000000000000000000, 0.000000000000000000, 0.000000000000000000 ) ) ;
#50 = SECURITY_CLASSIFICATION ( '', '', #22 ) ;
#51 = DATE_AND_TIME ( #6, #144 ) ;
#52 = CARTESIAN_POINT ( 'NONE',  ( 0.000000000000000000, 0.000000000000000000, 1.500000000000000000 ) ) ;
#53 = CARTESIAN_POINT ( 'NONE',  ( 0.000000000000000000, 0.000000000000000000, 1.500000000000000000 ) ) ;
#54 = LINE ( 'NONE', #232, #199 ) ;
#55 = AXIS2_PLACEMENT_3D ( 'NONE', #159, #96, #95 ) ;
#56 = LINE ( 'NONE', #173, #235 ) ;
#57 = CALENDAR_DATE ( 2023, 13, 2 ) ;
#58 = COORDINATED_UNIVERSAL_TIME_OFFSET ( 1, 0, .AHEAD. ) ;
#59 = PERSON_AND_ORGANIZATION_ROLE ( 'creator' ) ;
#60 = CYLINDRICAL_SURFACE ( 'NONE', #64, 0.9000000000000000222 ) ;
#61 = EDGE_LOOP ( 'NONE', ( #47, #39, #243, #220 ) ) ;
#62 = PRODUCT_RELATED_PRODUCT_CATEGORY ( 'detail', '', ( #175 ) ) ;
#63 = ORIENTED_EDGE ( 'NONE', *, *, #225, .F. ) ;
#64 = AXIS2_PLACEMENT_3D ( 'NONE', #189, #140, #214 ) ;
#65 = ORIENTED_EDGE ( 'NONE', *, *, #33, .T. ) ;
#66 = SHAPE_DEFINITION_REPRESENTATION ( #134, #156 ) ;
#67 = ORIENTED_EDGE ( 'NONE', *, *, #247, .F. ) ;
#68 = FACE_OUTER_BOUND ( 'NONE', #121, .T. ) ;
#69 = AXIS2_PLACEMENT_3D ( 'NONE', #167, #224, #49 ) ;
#70 = PERSON_AND_ORGANIZATION_ROLE ( 'design_supplier' ) ;
#71 = PLANE ( 'NONE',  #202 ) ;
#72 = CARTESIAN_POINT ( 'NONE',  ( 2.000000000000000000, 2.449293598294706414E-16, 1.500000000000000000 ) ) ;
#73 = FACE_OUTER_BOUND ( 'NONE', #106, .T. ) ;
#74 = CARTESIAN_POINT ( 'NONE',  ( -2.000000000000000000, 0.000000000000000000, 0.000000000000000000 ) ) ;
#75 = APPROVAL_STATUS ( 'not_yet_approved' ) ;
#76 = FACE_OUTER_BOUND ( 'NONE', #100, .T. ) ;
#77 = DIRECTION ( 'NONE',  ( 1.000000000000000000, 0.000000000000000000, 0.000000000000000000 ) ) ;
#78 = CIRCLE ( 'NONE', #120, 0.9000000000000000222 ) ;
#79 = CC_DESIGN_SECURITY_CLASSIFICATION ( #50, ( #19 ) ) ;
#80 = DIRECTION ( 'NONE',  ( 0.000000000000000000, 0.000000000000000000, 1.000000000000000000 ) ) ;
#81 = UNCERTAINTY_MEASURE_WITH_UNIT (LENGTH_MEASURE( 1.000000000000000082E-05 ), #17, 'distance_accuracy_value', 'NONE');
#82 = EDGE_CURVE ( 'NONE', #85, #4, #56, .T. ) ;
#83 = ORIENTED_EDGE ( 'NONE', *, *, #41, .F. ) ;
#84 = CARTESIAN_POINT ( 'NONE',  ( 0.000000000000000000, 0.000000000000000000, 0.000000000000000000 ) ) ;
#85 = VERTEX_POINT ( 'NONE', #112 ) ;
#86 = ORIENTED_EDGE ( 'NONE', *, *, #160, .T. ) ;
#87 = DIRECTION ( 'NONE',  ( 1.000000000000000000, 0.000000000000000000, 0.000000000000000000 ) ) ;
#88 = ADVANCED_FACE ( 'NONE', ( #94 ), #210, .T. ) ;
#89 = DIRECTION ( 'NONE',  ( 1.000000000000000000, 0.000000000000000000, 0.000000000000000000 ) ) ;
#90 = APPROVAL ( #222, 'NEURÈENÝ' ) ;
#91 = DIRECTION ( 'NONE',  ( 1.000000000000000000, 0.000000000000000000, 0.000000000000000000 ) ) ;
#92 = LOCAL_TIME ( 18, 16, 17.00000000000000000, #58 ) ;
#93 = DIRECTION ( 'NONE',  ( 0.000000000000000000, 0.000000000000000000, 1.000000000000000000 ) ) ;
#94 = FACE_OUTER_BOUND ( 'NONE', #61, .T. ) ;
#95 = DIRECTION ( 'NONE',  ( 1.000000000000000000, 0.000000000000000000, 0.000000000000000000 ) ) ;
#96 = DIRECTION ( 'NONE',  ( 0.000000000000000000, 0.000000000000000000, 1.000000000000000000 ) ) ;
#97 = AXIS2_PLACEMENT_3D ( 'NONE', #84, #203, #152 ) ;
#98 = AXIS2_PLACEMENT_3D ( 'NONE', #2, #14, #77 ) ;
#99 = PERSON_AND_ORGANIZATION ( #195, #231 ) ;
#100 = EDGE_LOOP ( 'NONE', ( #67, #125, #223, #105 ) ) ;
#101 = VERTEX_POINT ( 'NONE', #72 ) ;
#102 = DATE_TIME_ROLE ( 'classification_date' ) ;
#103 = PERSON_AND_ORGANIZATION_ROLE ( 'classification_officer' ) ;
#104 = CIRCLE ( 'NONE', #69, 2.000000000000000000 ) ;
#105 = ORIENTED_EDGE ( 'NONE', *, *, #82, .F. ) ;
#106 = EDGE_LOOP ( 'NONE', ( #219, #181 ) ) ;
#107 = CC_DESIGN_PERSON_AND_ORGANIZATION_ASSIGNMENT ( #16, #70, ( #19 ) ) ;
#108 = DIRECTION ( 'NONE',  ( -0.000000000000000000, -0.000000000000000000, -1.000000000000000000 ) ) ;
#109 = FACE_BOUND ( 'NONE', #178, .T. ) ;
#110 = PLANE ( 'NONE',  #212 ) ;
#111 = DIRECTION ( 'NONE',  ( -0.000000000000000000, -0.000000000000000000, -1.000000000000000000 ) ) ;
#112 = CARTESIAN_POINT ( 'NONE',  ( -0.9000000000000000222, 0.000000000000000000, 125.0000000000000000 ) ) ;
#113 = DATE_AND_TIME ( #57, #36 ) ;
#114 = CC_DESIGN_DATE_AND_TIME_ASSIGNMENT ( #215, #213, ( #161 ) ) ;
#115 = APPROVAL ( #75, 'NEURÈENÝ' ) ;
#116 = APPROVAL_DATE_TIME ( #153, #115 ) ;
#117 = PERSON_AND_ORGANIZATION ( #195, #231 ) ;
#118 = CIRCLE ( 'NONE', #216, 2.000000000000000000 ) ;
#119 = APPROVAL_ROLE ( '' ) ;
#120 = AXIS2_PLACEMENT_3D ( 'NONE', #53, #192, #253 ) ;
#121 = EDGE_LOOP ( 'NONE', ( #43, #65, #242, #83 ) ) ;
#122 = VERTEX_POINT ( 'NONE', #12 ) ;
#123 = VERTEX_POINT ( 'NONE', #32 ) ;
#124 = APPLICATION_CONTEXT ( 'configuration controlled 3d designs of mechanical parts and assemblies' ) ;
#125 = ORIENTED_EDGE ( 'NONE', *, *, #135, .T. ) ;
#126 = AXIS2_PLACEMENT_3D ( 'NONE', #150, #108, #185 ) ;
#127 = ADVANCED_FACE ( 'NONE', ( #68 ), #251, .T. ) ;
#128 = CARTESIAN_POINT ( 'NONE',  ( -2.000000000000000000, 0.000000000000000000, 1.500000000000000000 ) ) ;
#129 = DIRECTION ( 'NONE',  ( 0.000000000000000000, 0.000000000000000000, 1.000000000000000000 ) ) ;
#130 = VECTOR ( 'NONE', #151, 1000.000000000000000 ) ;
#131 = DIRECTION ( 'NONE',  ( 0.000000000000000000, 0.000000000000000000, 1.000000000000000000 ) ) ;
#132 = DIRECTION ( 'NONE',  ( -0.000000000000000000, -0.000000000000000000, -1.000000000000000000 ) ) ;
#133 = CARTESIAN_POINT ( 'NONE',  ( 0.000000000000000000, 0.000000000000000000, 125.0000000000000000 ) ) ;
#134 = PRODUCT_DEFINITION_SHAPE ( 'NONE', 'NONE',  #161 ) ;
#135 = EDGE_CURVE ( 'NONE', #145, #123, #171, .T. ) ;
#136 = EDGE_CURVE ( 'NONE', #241, #101, #118, .T. ) ;
#137 = APPLICATION_PROTOCOL_DEFINITION ( 'international standard', 'config_control_design', 1994, #124 ) ;
#138 = DIRECTION ( 'NONE',  ( 1.000000000000000000, 0.000000000000000000, 0.000000000000000000 ) ) ;
#139 = PERSON_AND_ORGANIZATION ( #195, #231 ) ;
#140 = DIRECTION ( 'NONE',  ( -0.000000000000000000, -0.000000000000000000, -1.000000000000000000 ) ) ;
#141 = DESIGN_CONTEXT ( 'detailed design', #124, 'design' ) ;
#142 = AXIS2_PLACEMENT_3D ( 'NONE', #174, #80, #138 ) ;
#143 = COORDINATED_UNIVERSAL_TIME_OFFSET ( 1, 0, .AHEAD. ) ;
#144 = LOCAL_TIME ( 18, 16, 17.00000000000000000, #143 ) ;
#145 = VERTEX_POINT ( 'NONE', #211 ) ;
#146 = CC_DESIGN_PERSON_AND_ORGANIZATION_ASSIGNMENT ( #18, #59, ( #161 ) ) ;
#147 = DIRECTION ( 'NONE',  ( -1.000000000000000000, 0.000000000000000000, 0.000000000000000000 ) ) ;
#148 = CALENDAR_DATE ( 2023, 13, 2 ) ;
#149 = PLANE ( 'NONE',  #157 ) ;
#150 = CARTESIAN_POINT ( 'NONE',  ( 0.000000000000000000, 0.000000000000000000, 1.500000000000000000 ) ) ;
#151 = DIRECTION ( 'NONE',  ( -0.000000000000000000, -0.000000000000000000, -1.000000000000000000 ) ) ;
#152 = DIRECTION ( 'NONE',  ( 1.000000000000000000, 0.000000000000000000, 0.000000000000000000 ) ) ;
#153 = DATE_AND_TIME ( #37, #184 ) ;
#154 = APPROVAL ( #176, 'NEURÈENÝ' ) ;
#155 =( NAMED_UNIT ( * ) SI_UNIT ( $, .STERADIAN. ) SOLID_ANGLE_UNIT ( ) );
#156 = ADVANCED_BREP_SHAPE_REPRESENTATION ( 'b8db', ( #233, #55 ), #164 ) ;
#157 = AXIS2_PLACEMENT_3D ( 'NONE', #227, #172, #229 ) ;
#158 =( NAMED_UNIT ( * ) PLANE_ANGLE_UNIT ( ) SI_UNIT ( $, .RADIAN. ) );
#159 = CARTESIAN_POINT ( 'NONE',  ( 0.000000000000000000, 0.000000000000000000, 0.000000000000000000 ) ) ;
#160 = EDGE_CURVE ( 'NONE', #21, #122, #104, .T. ) ;
#161 = PRODUCT_DEFINITION ( 'NEZNÁMÝ', '', #19, #141 ) ;
#162 = EDGE_LOOP ( 'NONE', ( #200, #179, #166, #86 ) ) ;
#163 = ORIENTED_EDGE ( 'NONE', *, *, #205, .T. ) ;
#164 =( GEOMETRIC_REPRESENTATION_CONTEXT ( 3 ) GLOBAL_UNCERTAINTY_ASSIGNED_CONTEXT ( ( #81 ) ) GLOBAL_UNIT_ASSIGNED_CONTEXT ( ( #17, #158, #155 ) ) REPRESENTATION_CONTEXT ( 'NONE', 'WORKASPACE' ) );
#165 = APPROVAL_PERSON_ORGANIZATION ( #180, #90, #182 ) ;
#166 = ORIENTED_EDGE ( 'NONE', *, *, #41, .T. ) ;
#167 = CARTESIAN_POINT ( 'NONE',  ( 0.000000000000000000, 0.000000000000000000, 0.000000000000000000 ) ) ;
#168 = FACE_OUTER_BOUND ( 'NONE', #23, .T. ) ;
#169 = CC_DESIGN_APPROVAL ( #115, ( #161 ) ) ;
#170 = APPLICATION_CONTEXT ( 'configuration controlled 3d designs of mechanical parts and assemblies' ) ;
#171 = LINE ( 'NONE', #31, #48 ) ;
#172 = DIRECTION ( 'NONE',  ( 0.000000000000000000, 0.000000000000000000, 1.000000000000000000 ) ) ;
#173 = CARTESIAN_POINT ( 'NONE',  ( -0.9000000000000000222, 0.000000000000000000, 125.0000000000000000 ) ) ;
#174 = CARTESIAN_POINT ( 'NONE',  ( 0.000000000000000000, 0.000000000000000000, 1.500000000000000000 ) ) ;
#175 = PRODUCT ( 'b8db', 'b8db', '', ( #238 ) ) ;
#176 = APPROVAL_STATUS ( 'not_yet_approved' ) ;
#177 = ADVANCED_FACE ( 'NONE', ( #186 ), #208, .T. ) ;
#178 = EDGE_LOOP ( 'NONE', ( #5, #63 ) ) ;
#179 = ORIENTED_EDGE ( 'NONE', *, *, #136, .F. ) ;
#180 = PERSON_AND_ORGANIZATION ( #195, #231 ) ;
#181 = ORIENTED_EDGE ( 'NONE', *, *, #247, .T. ) ;
#182 = APPROVAL_ROLE ( '' ) ;
#183 = APPROVAL_PERSON_ORGANIZATION ( #237, #115, #35 ) ;
#184 = LOCAL_TIME ( 18, 16, 17.00000000000000000, #191 ) ;
#185 = DIRECTION ( 'NONE',  ( -1.000000000000000000, 0.000000000000000000, 0.000000000000000000 ) ) ;
#186 = FACE_OUTER_BOUND ( 'NONE', #162, .T. ) ;
#187 = DIRECTION ( 'NONE',  ( -0.000000000000000000, -0.000000000000000000, -1.000000000000000000 ) ) ;
#188 = CARTESIAN_POINT ( 'NONE',  ( 0.000000000000000000, 0.000000000000000000, 1.500000000000000000 ) ) ;
#189 = CARTESIAN_POINT ( 'NONE',  ( 0.000000000000000000, 0.000000000000000000, 125.0000000000000000 ) ) ;
#190 = PERSON_AND_ORGANIZATION_ROLE ( 'creator' ) ;
#191 = COORDINATED_UNIVERSAL_TIME_OFFSET ( 1, 0, .AHEAD. ) ;
#192 = DIRECTION ( 'NONE',  ( 0.000000000000000000, 0.000000000000000000, 1.000000000000000000 ) ) ;
#193 = COORDINATED_UNIVERSAL_TIME_OFFSET ( 1, 0, .AHEAD. ) ;
#194 = CIRCLE ( 'NONE', #142, 0.9000000000000000222 ) ;
#195 = PERSON ( 'NEURÈENÝ', 'NEURÈENÝ', 'NEURÈENÝ', ('NEURÈENÝ'), ('NEURÈENÝ'), ('NEURÈENÝ') ) ;
#196 = CC_DESIGN_PERSON_AND_ORGANIZATION_ASSIGNMENT ( #228, #103, ( #50 ) ) ;
#197 = EDGE_CURVE ( 'NONE', #85, #145, #239, .T. ) ;
#198 = ORIENTED_EDGE ( 'NONE', *, *, #160, .F. ) ;
#199 = VECTOR ( 'NONE', #132, 1000.000000000000000 ) ;
#200 = ORIENTED_EDGE ( 'NONE', *, *, #33, .F. ) ;
#201 = ORIENTED_EDGE ( 'NONE', *, *, #15, .F. ) ;
#202 = AXIS2_PLACEMENT_3D ( 'NONE', #27, #93, #28 ) ;
#203 = DIRECTION ( 'NONE',  ( 0.000000000000000000, 0.000000000000000000, 1.000000000000000000 ) ) ;
#204 = ADVANCED_FACE ( 'NONE', ( #168 ), #149, .F. ) ;
#205 = EDGE_CURVE ( 'NONE', #101, #241, #30, .T. ) ;
#206 = CARTESIAN_POINT ( 'NONE',  ( 0.000000000000000000, 0.000000000000000000, 1.500000000000000000 ) ) ;
#207 = CIRCLE ( 'NONE', #97, 2.000000000000000000 ) ;
#208 = CYLINDRICAL_SURFACE ( 'NONE', #126, 2.000000000000000000 ) ;
#209 = CIRCLE ( 'NONE', #98, 0.9000000000000000222 ) ;
#210 = CYLINDRICAL_SURFACE ( 'NONE', #42, 0.9000000000000000222 ) ;
#211 = CARTESIAN_POINT ( 'NONE',  ( 0.9000000000000000222, 1.102182119232617788E-16, 125.0000000000000000 ) ) ;
#212 = AXIS2_PLACEMENT_3D ( 'NONE', #206, #131, #250 ) ;
#213 = DATE_TIME_ROLE ( 'creation_date' ) ;
#214 = DIRECTION ( 'NONE',  ( -1.000000000000000000, 0.000000000000000000, 0.000000000000000000 ) ) ;
#215 = DATE_AND_TIME ( #234, #92 ) ;
#216 = AXIS2_PLACEMENT_3D ( 'NONE', #188, #7, #87 ) ;
#217 = CARTESIAN_POINT ( 'NONE',  ( -2.000000000000000000, 0.000000000000000000, 1.500000000000000000 ) ) ;
#218 = CC_DESIGN_PERSON_AND_ORGANIZATION_ASSIGNMENT ( #139, #255, ( #175 ) ) ;
#219 = ORIENTED_EDGE ( 'NONE', *, *, #197, .T. ) ;
#220 = ORIENTED_EDGE ( 'NONE', *, *, #245, .T. ) ;
#221 = CC_DESIGN_APPROVAL ( #154, ( #19 ) ) ;
#222 = APPROVAL_STATUS ( 'not_yet_approved' ) ;
#223 = ORIENTED_EDGE ( 'NONE', *, *, #225, .T. ) ;
#224 = DIRECTION ( 'NONE',  ( 0.000000000000000000, 0.000000000000000000, 1.000000000000000000 ) ) ;
#225 = EDGE_CURVE ( 'NONE', #123, #4, #78, .T. ) ;
#226 = COORDINATED_UNIVERSAL_TIME_OFFSET ( 1, 0, .AHEAD. ) ;
#227 = CARTESIAN_POINT ( 'NONE',  ( 0.000000000000000000, 0.000000000000000000, 0.000000000000000000 ) ) ;
#228 = PERSON_AND_ORGANIZATION ( #195, #231 ) ;
#229 = DIRECTION ( 'NONE',  ( 1.000000000000000000, 0.000000000000000000, -0.000000000000000000 ) ) ;
#230 = DIRECTION ( 'NONE',  ( -0.000000000000000000, -0.000000000000000000, -1.000000000000000000 ) ) ;
#231 = ORGANIZATION ( 'NEURÈENÝ', 'NEURÈENÝ', '' ) ;
#232 = CARTESIAN_POINT ( 'NONE',  ( 2.000000000000000000, 2.449293598294706414E-16, 1.500000000000000000 ) ) ;
#233 = MANIFOLD_SOLID_BREP ( 'Pøidat vysunutím3', #248 ) ;
#234 = CALENDAR_DATE ( 2023, 13, 2 ) ;
#235 = VECTOR ( 'NONE', #187, 1000.000000000000000 ) ;
#236 = CC_DESIGN_PERSON_AND_ORGANIZATION_ASSIGNMENT ( #99, #190, ( #19 ) ) ;
#237 = PERSON_AND_ORGANIZATION ( #195, #231 ) ;
#238 = MECHANICAL_CONTEXT ( 'NONE', #170, 'mechanical' ) ;
#239 = CIRCLE ( 'NONE', #11, 0.9000000000000000222 ) ;
#240 = ADVANCED_FACE ( 'NONE', ( #76 ), #60, .T. ) ;
#241 = VERTEX_POINT ( 'NONE', #217 ) ;
#242 = ORIENTED_EDGE ( 'NONE', *, *, #15, .T. ) ;
#243 = ORIENTED_EDGE ( 'NONE', *, *, #82, .T. ) ;
#244 = ORIENTED_EDGE ( 'NONE', *, *, #136, .T. ) ;
#245 = EDGE_CURVE ( 'NONE', #4, #123, #194, .T. ) ;
#246 = DIRECTION ( 'NONE',  ( -1.000000000000000000, 0.000000000000000000, 0.000000000000000000 ) ) ;
#247 = EDGE_CURVE ( 'NONE', #145, #85, #209, .T. ) ;
#248 = CLOSED_SHELL ( 'NONE', ( #240, #127, #177, #34, #204, #88, #40 ) ) ;
#249 = FACE_OUTER_BOUND ( 'NONE', #24, .T. ) ;
#250 = DIRECTION ( 'NONE',  ( 1.000000000000000000, 0.000000000000000000, -0.000000000000000000 ) ) ;
#251 = CYLINDRICAL_SURFACE ( 'NONE', #38, 2.000000000000000000 ) ;
#252 = CARTESIAN_POINT ( 'NONE',  ( 0.000000000000000000, 0.000000000000000000, 1.500000000000000000 ) ) ;
#253 = DIRECTION ( 'NONE',  ( 1.000000000000000000, 0.000000000000000000, 0.000000000000000000 ) ) ;
#254 = CC_DESIGN_DATE_AND_TIME_ASSIGNMENT ( #26, #102, ( #50 ) ) ;
#255 = PERSON_AND_ORGANIZATION_ROLE ( 'design_owner' ) ;
ENDSEC;
END-ISO-10303-21;
