ISO-10303-21;
HEADER;
FILE_DESCRIPTION (( 'STEP AP203' ),
    '1' );
FILE_NAME ('e236.STEP',
    '2023-02-13T15:45:51',
    ( '' ),
    ( '' ),
    'SwSTEP 2.0',
    'SolidWorks 2019',
    '' );
FILE_SCHEMA (( 'CONFIG_CONTROL_DESIGN' ));
ENDSEC;

DATA;
#1 = DIRECTION ( 'NONE',  ( 1.000000000000000000, 0.000000000000000000, 0.000000000000000000 ) ) ;
#2 = PLANE ( 'NONE',  #139 ) ;
#3 = CARTESIAN_POINT ( 'NONE',  ( 0.000000000000000000, 0.000000000000000000, 0.000000000000000000 ) ) ;
#4 = ADVANCED_FACE ( 'NONE', ( #201 ), #97, .T. ) ;
#5 = CARTESIAN_POINT ( 'NONE',  ( 6.000000000000000888, 7.347880794884120722E-16, 5.000000000000000000 ) ) ;
#6 = APPLICATION_PROTOCOL_DEFINITION ( 'international standard', 'config_control_design', 1994, #141 ) ;
#7 = ORIENTED_EDGE ( 'NONE', *, *, #36, .F. ) ;
#8 = ADVANCED_FACE ( 'NONE', ( #137, #246 ), #159, .T. ) ;
#9 = SECURITY_CLASSIFICATION_LEVEL ( 'unclassified' ) ;
#10 = PERSON_AND_ORGANIZATION ( #75, #37 ) ;
#11 = VERTEX_POINT ( 'NONE', #135 ) ;
#12 = ADVANCED_FACE ( 'NONE', ( #204 ), #165, .T. ) ;
#13 = CARTESIAN_POINT ( 'NONE',  ( 0.000000000000000000, 0.000000000000000000, 5.000000000000000000 ) ) ;
#14 = CARTESIAN_POINT ( 'NONE',  ( 0.000000000000000000, 0.000000000000000000, 100.0000000000000000 ) ) ;
#15 = DIRECTION ( 'NONE',  ( 1.000000000000000000, 0.000000000000000000, 0.000000000000000000 ) ) ;
#16 = PERSON_AND_ORGANIZATION ( #75, #37 ) ;
#17 = EDGE_LOOP ( 'NONE', ( #51, #249, #35, #250 ) ) ;
#18 = APPLICATION_PROTOCOL_DEFINITION ( 'international standard', 'config_control_design', 1994, #48 ) ;
#19 = CIRCLE ( 'NONE', #192, 3.000000000000000444 ) ;
#20 = EDGE_CURVE ( 'NONE', #176, #98, #205, .T. ) ;
#21 = FACE_OUTER_BOUND ( 'NONE', #109, .T. ) ;
#22 = CARTESIAN_POINT ( 'NONE',  ( 0.000000000000000000, 0.000000000000000000, 0.000000000000000000 ) ) ;
#23 = EDGE_LOOP ( 'NONE', ( #73, #180 ) ) ;
#24 = DIRECTION ( 'NONE',  ( -0.000000000000000000, -0.000000000000000000, -1.000000000000000000 ) ) ;
#25 = EDGE_CURVE ( 'NONE', #130, #176, #236, .T. ) ;
#26 = EDGE_LOOP ( 'NONE', ( #153, #7, #81, #136 ) ) ;
#27 = ORIENTED_EDGE ( 'NONE', *, *, #63, .F. ) ;
#28 = APPROVAL ( #181, 'NEURÈENÝ' ) ;
#29 = AXIS2_PLACEMENT_3D ( 'NONE', #254, #44, #123 ) ;
#30 = LINE ( 'NONE', #62, #78 ) ;
#31 = DIRECTION ( 'NONE',  ( 0.000000000000000000, 0.000000000000000000, 1.000000000000000000 ) ) ;
#32 = DIRECTION ( 'NONE',  ( 0.000000000000000000, 0.000000000000000000, 1.000000000000000000 ) ) ;
#33 = CARTESIAN_POINT ( 'NONE',  ( 0.000000000000000000, 0.000000000000000000, 5.000000000000000000 ) ) ;
#34 = APPROVAL_ROLE ( '' ) ;
#35 = ORIENTED_EDGE ( 'NONE', *, *, #49, .T. ) ;
#36 = EDGE_CURVE ( 'NONE', #39, #240, #111, .T. ) ;
#37 = ORGANIZATION ( 'NEURÈENÝ', 'NEURÈENÝ', '' ) ;
#38 = CARTESIAN_POINT ( 'NONE',  ( 0.000000000000000000, 0.000000000000000000, 0.000000000000000000 ) ) ;
#39 = VERTEX_POINT ( 'NONE', #231 ) ;
#40 = AXIS2_PLACEMENT_3D ( 'NONE', #226, #119, #57 ) ;
#41 = DATE_AND_TIME ( #158, #230 ) ;
#42 = CYLINDRICAL_SURFACE ( 'NONE', #155, 6.000000000000000888 ) ;
#43 = APPROVAL ( #211, 'NEURÈENÝ' ) ;
#44 = DIRECTION ( 'NONE',  ( 0.000000000000000000, 0.000000000000000000, 1.000000000000000000 ) ) ;
#45 = CYLINDRICAL_SURFACE ( 'NONE', #101, 6.000000000000000888 ) ;
#46 = DIRECTION ( 'NONE',  ( 0.000000000000000000, 0.000000000000000000, 1.000000000000000000 ) ) ;
#47 = CALENDAR_DATE ( 2023, 13, 2 ) ;
#48 = APPLICATION_CONTEXT ( 'configuration controlled 3d designs of mechanical parts and assemblies' ) ;
#49 = EDGE_CURVE ( 'NONE', #199, #157, #116, .T. ) ;
#50 =( LENGTH_UNIT ( ) NAMED_UNIT ( * ) SI_UNIT ( .MILLI., .METRE. ) );
#51 = ORIENTED_EDGE ( 'NONE', *, *, #169, .F. ) ;
#52 = LOCAL_TIME ( 16, 45, 51.00000000000000000, #92 ) ;
#53 = EDGE_LOOP ( 'NONE', ( #245, #251, #162, #27 ) ) ;
#54 = PERSON_AND_ORGANIZATION_ROLE ( 'creator' ) ;
#55 = VECTOR ( 'NONE', #166, 1000.000000000000000 ) ;
#56 = PRODUCT_RELATED_PRODUCT_CATEGORY ( 'detail', '', ( #212 ) ) ;
#57 = DIRECTION ( 'NONE',  ( 1.000000000000000000, 0.000000000000000000, -0.000000000000000000 ) ) ;
#58 = ADVANCED_BREP_SHAPE_REPRESENTATION ( 'e236', ( #142, #145 ), #252 ) ;
#59 = ORIENTED_EDGE ( 'NONE', *, *, #183, .T. ) ;
#60 = CARTESIAN_POINT ( 'NONE',  ( 0.000000000000000000, 0.000000000000000000, 100.0000000000000000 ) ) ;
#61 = AXIS2_PLACEMENT_3D ( 'NONE', #253, #147, #64 ) ;
#62 = CARTESIAN_POINT ( 'NONE',  ( -6.000000000000000888, 0.000000000000000000, 5.000000000000000000 ) ) ;
#63 = EDGE_CURVE ( 'NONE', #130, #11, #187, .T. ) ;
#64 = DIRECTION ( 'NONE',  ( 1.000000000000000000, 0.000000000000000000, 0.000000000000000000 ) ) ;
#65 = PLANE ( 'NONE',  #186 ) ;
#66 = DIRECTION ( 'NONE',  ( -1.000000000000000000, 0.000000000000000000, 0.000000000000000000 ) ) ;
#67 = CARTESIAN_POINT ( 'NONE',  ( -3.000000000000000444, 0.000000000000000000, 100.0000000000000000 ) ) ;
#68 = DATE_AND_TIME ( #47, #174 ) ;
#69 = LOCAL_TIME ( 16, 45, 51.00000000000000000, #156 ) ;
#70 = APPROVAL_DATE_TIME ( #108, #43 ) ;
#71 = DATE_TIME_ROLE ( 'creation_date' ) ;
#72 = CC_DESIGN_APPROVAL ( #43, ( #121 ) ) ;
#73 = ORIENTED_EDGE ( 'NONE', *, *, #36, .T. ) ;
#74 = CIRCLE ( 'NONE', #168, 6.000000000000000888 ) ;
#75 = PERSON ( 'NEURÈENÝ', 'NEURÈENÝ', 'NEURÈENÝ', ('NEURÈENÝ'), ('NEURÈENÝ'), ('NEURÈENÝ') ) ;
#76 = COORDINATED_UNIVERSAL_TIME_OFFSET ( 1, 0, .AHEAD. ) ;
#77 = DIRECTION ( 'NONE',  ( -1.000000000000000000, 0.000000000000000000, 0.000000000000000000 ) ) ;
#78 = VECTOR ( 'NONE', #171, 1000.000000000000000 ) ;
#79 = LOCAL_TIME ( 16, 45, 51.00000000000000000, #89 ) ;
#80 = SHAPE_DEFINITION_REPRESENTATION ( #196, #58 ) ;
#81 = ORIENTED_EDGE ( 'NONE', *, *, #99, .T. ) ;
#82 = ORIENTED_EDGE ( 'NONE', *, *, #210, .F. ) ;
#83 = ORIENTED_EDGE ( 'NONE', *, *, #20, .F. ) ;
#84 = CARTESIAN_POINT ( 'NONE',  ( 0.000000000000000000, 0.000000000000000000, 100.0000000000000000 ) ) ;
#85 = FACE_OUTER_BOUND ( 'NONE', #93, .T. ) ;
#86 = VECTOR ( 'NONE', #87, 1000.000000000000000 ) ;
#87 = DIRECTION ( 'NONE',  ( -0.000000000000000000, -0.000000000000000000, -1.000000000000000000 ) ) ;
#88 = DIRECTION ( 'NONE',  ( -0.000000000000000000, -0.000000000000000000, -1.000000000000000000 ) ) ;
#89 = COORDINATED_UNIVERSAL_TIME_OFFSET ( 1, 0, .AHEAD. ) ;
#90 = EDGE_CURVE ( 'NONE', #176, #130, #207, .T. ) ;
#91 = MECHANICAL_CONTEXT ( 'NONE', #48, 'mechanical' ) ;
#92 = COORDINATED_UNIVERSAL_TIME_OFFSET ( 1, 0, .AHEAD. ) ;
#93 = EDGE_LOOP ( 'NONE', ( #185, #114 ) ) ;
#94 = ORIENTED_EDGE ( 'NONE', *, *, #25, .F. ) ;
#95 = CC_DESIGN_DATE_AND_TIME_ASSIGNMENT ( #202, #133, ( #232 ) ) ;
#96 = CIRCLE ( 'NONE', #61, 6.000000000000000888 ) ;
#97 = CYLINDRICAL_SURFACE ( 'NONE', #122, 3.000000000000000444 ) ;
#98 = VERTEX_POINT ( 'NONE', #143 ) ;
#99 = EDGE_CURVE ( 'NONE', #39, #157, #30, .T. ) ;
#100 = ORIENTED_EDGE ( 'NONE', *, *, #49, .F. ) ;
#101 = AXIS2_PLACEMENT_3D ( 'NONE', #13, #102, #120 ) ;
#102 = DIRECTION ( 'NONE',  ( -0.000000000000000000, -0.000000000000000000, -1.000000000000000000 ) ) ;
#103 = DIRECTION ( 'NONE',  ( 1.000000000000000000, 0.000000000000000000, 0.000000000000000000 ) ) ;
#104 = CARTESIAN_POINT ( 'NONE',  ( 3.000000000000000444, 3.673940397442060361E-16, 100.0000000000000000 ) ) ;
#105 = AXIS2_PLACEMENT_3D ( 'NONE', #190, #31, #1 ) ;
#106 = LINE ( 'NONE', #5, #160 ) ;
#107 = EDGE_CURVE ( 'NONE', #98, #11, #150, .T. ) ;
#108 = DATE_AND_TIME ( #215, #52 ) ;
#109 = EDGE_LOOP ( 'NONE', ( #82, #100 ) ) ;
#110 = DIRECTION ( 'NONE',  ( 0.000000000000000000, 0.000000000000000000, 1.000000000000000000 ) ) ;
#111 = CIRCLE ( 'NONE', #242, 6.000000000000000888 ) ;
#112 = CC_DESIGN_APPROVAL ( #28, ( #232 ) ) ;
#113 = DIRECTION ( 'NONE',  ( 1.000000000000000000, 0.000000000000000000, 0.000000000000000000 ) ) ;
#114 = ORIENTED_EDGE ( 'NONE', *, *, #90, .T. ) ;
#115 = PERSON_AND_ORGANIZATION_ROLE ( 'design_supplier' ) ;
#116 = CIRCLE ( 'NONE', #247, 6.000000000000000888 ) ;
#117 = DIRECTION ( 'NONE',  ( -0.000000000000000000, -0.000000000000000000, -1.000000000000000000 ) ) ;
#118 = APPROVAL_PERSON_ORGANIZATION ( #154, #43, #34 ) ;
#119 = DIRECTION ( 'NONE',  ( 0.000000000000000000, 0.000000000000000000, 1.000000000000000000 ) ) ;
#120 = DIRECTION ( 'NONE',  ( -1.000000000000000000, 0.000000000000000000, 0.000000000000000000 ) ) ;
#121 = PRODUCT_DEFINITION_FORMATION_WITH_SPECIFIED_SOURCE ( 'LIBOVOLNÝ', '', #212, .NOT_KNOWN. ) ;
#122 = AXIS2_PLACEMENT_3D ( 'NONE', #60, #117, #77 ) ;
#123 = DIRECTION ( 'NONE',  ( 1.000000000000000000, 0.000000000000000000, 0.000000000000000000 ) ) ;
#124 = FACE_OUTER_BOUND ( 'NONE', #17, .T. ) ;
#125 = DIRECTION ( 'NONE',  ( 1.000000000000000000, 0.000000000000000000, 0.000000000000000000 ) ) ;
#126 = DATE_AND_TIME ( #151, #79 ) ;
#127 = CC_DESIGN_PERSON_AND_ORGANIZATION_ASSIGNMENT ( #178, #115, ( #121 ) ) ;
#128 = APPROVAL_DATE_TIME ( #68, #163 ) ;
#129 = DIRECTION ( 'NONE',  ( 0.000000000000000000, 0.000000000000000000, 1.000000000000000000 ) ) ;
#130 = VERTEX_POINT ( 'NONE', #140 ) ;
#131 = PERSON_AND_ORGANIZATION_ROLE ( 'design_owner' ) ;
#132 = PERSON_AND_ORGANIZATION_ROLE ( 'creator' ) ;
#133 = DATE_TIME_ROLE ( 'classification_date' ) ;
#134 = CARTESIAN_POINT ( 'NONE',  ( 0.000000000000000000, 0.000000000000000000, 100.0000000000000000 ) ) ;
#135 = CARTESIAN_POINT ( 'NONE',  ( -3.000000000000000444, 0.000000000000000000, 5.000000000000000000 ) ) ;
#136 = ORIENTED_EDGE ( 'NONE', *, *, #210, .T. ) ;
#137 = FACE_BOUND ( 'NONE', #164, .T. ) ;
#138 = CC_DESIGN_PERSON_AND_ORGANIZATION_ASSIGNMENT ( #10, #220, ( #232 ) ) ;
#139 = AXIS2_PLACEMENT_3D ( 'NONE', #22, #129, #213 ) ;
#140 = CARTESIAN_POINT ( 'NONE',  ( -3.000000000000000444, 0.000000000000000000, 100.0000000000000000 ) ) ;
#141 = APPLICATION_CONTEXT ( 'configuration controlled 3d designs of mechanical parts and assemblies' ) ;
#142 = MANIFOLD_SOLID_BREP ( 'Pøidat vysunutím3', #173 ) ;
#143 = CARTESIAN_POINT ( 'NONE',  ( 3.000000000000000444, 3.673940397442060361E-16, 5.000000000000000000 ) ) ;
#144 = CC_DESIGN_SECURITY_CLASSIFICATION ( #232, ( #121 ) ) ;
#145 = AXIS2_PLACEMENT_3D ( 'NONE', #3, #110, #175 ) ;
#146 = CARTESIAN_POINT ( 'NONE',  ( -6.000000000000000888, 0.000000000000000000, 0.000000000000000000 ) ) ;
#147 = DIRECTION ( 'NONE',  ( 0.000000000000000000, 0.000000000000000000, 1.000000000000000000 ) ) ;
#148 = ADVANCED_FACE ( 'NONE', ( #208 ), #42, .T. ) ;
#149 = APPROVAL_STATUS ( 'not_yet_approved' ) ;
#150 = CIRCLE ( 'NONE', #105, 3.000000000000000444 ) ;
#151 = CALENDAR_DATE ( 2023, 13, 2 ) ;
#152 = PERSON_AND_ORGANIZATION ( #75, #37 ) ;
#153 = ORIENTED_EDGE ( 'NONE', *, *, #188, .F. ) ;
#154 = PERSON_AND_ORGANIZATION ( #75, #37 ) ;
#155 = AXIS2_PLACEMENT_3D ( 'NONE', #33, #88, #66 ) ;
#156 = COORDINATED_UNIVERSAL_TIME_OFFSET ( 1, 0, .AHEAD. ) ;
#157 = VERTEX_POINT ( 'NONE', #146 ) ;
#158 = CALENDAR_DATE ( 2023, 13, 2 ) ;
#159 = PLANE ( 'NONE',  #40 ) ;
#160 = VECTOR ( 'NONE', #24, 1000.000000000000000 ) ;
#161 = ADVANCED_FACE ( 'NONE', ( #124 ), #45, .T. ) ;
#162 = ORIENTED_EDGE ( 'NONE', *, *, #107, .T. ) ;
#163 = APPROVAL ( #149, 'NEURÈENÝ' ) ;
#164 = EDGE_LOOP ( 'NONE', ( #223, #179 ) ) ;
#165 = CYLINDRICAL_SURFACE ( 'NONE', #227, 3.000000000000000444 ) ;
#166 = DIRECTION ( 'NONE',  ( -0.000000000000000000, -0.000000000000000000, -1.000000000000000000 ) ) ;
#167 = DIRECTION ( 'NONE',  ( 0.000000000000000000, 0.000000000000000000, 1.000000000000000000 ) ) ;
#168 = AXIS2_PLACEMENT_3D ( 'NONE', #38, #238, #113 ) ;
#169 = EDGE_CURVE ( 'NONE', #240, #39, #96, .T. ) ;
#170 = DIRECTION ( 'NONE',  ( 1.000000000000000000, 0.000000000000000000, 0.000000000000000000 ) ) ;
#171 = DIRECTION ( 'NONE',  ( -0.000000000000000000, -0.000000000000000000, -1.000000000000000000 ) ) ;
#172 =( NAMED_UNIT ( * ) SI_UNIT ( $, .STERADIAN. ) SOLID_ANGLE_UNIT ( ) );
#173 = CLOSED_SHELL ( 'NONE', ( #12, #161, #148, #8, #237, #4, #177 ) ) ;
#174 = LOCAL_TIME ( 16, 45, 51.00000000000000000, #195 ) ;
#175 = DIRECTION ( 'NONE',  ( 1.000000000000000000, 0.000000000000000000, 0.000000000000000000 ) ) ;
#176 = VERTEX_POINT ( 'NONE', #104 ) ;
#177 = ADVANCED_FACE ( 'NONE', ( #85 ), #65, .T. ) ;
#178 = PERSON_AND_ORGANIZATION ( #75, #37 ) ;
#179 = ORIENTED_EDGE ( 'NONE', *, *, #107, .F. ) ;
#180 = ORIENTED_EDGE ( 'NONE', *, *, #169, .T. ) ;
#181 = APPROVAL_STATUS ( 'not_yet_approved' ) ;
#182 = EDGE_LOOP ( 'NONE', ( #83, #94, #203, #59 ) ) ;
#183 = EDGE_CURVE ( 'NONE', #11, #98, #19, .T. ) ;
#184 = CALENDAR_DATE ( 2023, 13, 2 ) ;
#185 = ORIENTED_EDGE ( 'NONE', *, *, #25, .T. ) ;
#186 = AXIS2_PLACEMENT_3D ( 'NONE', #14, #167, #194 ) ;
#187 = LINE ( 'NONE', #67, #55 ) ;
#188 = EDGE_CURVE ( 'NONE', #240, #199, #106, .T. ) ;
#189 = CARTESIAN_POINT ( 'NONE',  ( 3.000000000000000444, 3.673940397442060361E-16, 100.0000000000000000 ) ) ;
#190 = CARTESIAN_POINT ( 'NONE',  ( 0.000000000000000000, 0.000000000000000000, 5.000000000000000000 ) ) ;
#191 = CARTESIAN_POINT ( 'NONE',  ( 0.000000000000000000, 0.000000000000000000, 5.000000000000000000 ) ) ;
#192 = AXIS2_PLACEMENT_3D ( 'NONE', #206, #233, #125 ) ;
#193 = CC_DESIGN_DATE_AND_TIME_ASSIGNMENT ( #126, #71, ( #229 ) ) ;
#194 = DIRECTION ( 'NONE',  ( 1.000000000000000000, 0.000000000000000000, -0.000000000000000000 ) ) ;
#195 = COORDINATED_UNIVERSAL_TIME_OFFSET ( 1, 0, .AHEAD. ) ;
#196 = PRODUCT_DEFINITION_SHAPE ( 'NONE', 'NONE',  #229 ) ;
#197 = PERSON_AND_ORGANIZATION ( #75, #37 ) ;
#198 = CARTESIAN_POINT ( 'NONE',  ( 6.000000000000000888, 7.347880794884120722E-16, 0.000000000000000000 ) ) ;
#199 = VERTEX_POINT ( 'NONE', #198 ) ;
#200 =( NAMED_UNIT ( * ) PLANE_ANGLE_UNIT ( ) SI_UNIT ( $, .RADIAN. ) );
#201 = FACE_OUTER_BOUND ( 'NONE', #182, .T. ) ;
#202 = DATE_AND_TIME ( #184, #69 ) ;
#203 = ORIENTED_EDGE ( 'NONE', *, *, #63, .T. ) ;
#204 = FACE_OUTER_BOUND ( 'NONE', #53, .T. ) ;
#205 = LINE ( 'NONE', #189, #86 ) ;
#206 = CARTESIAN_POINT ( 'NONE',  ( 0.000000000000000000, 0.000000000000000000, 5.000000000000000000 ) ) ;
#207 = CIRCLE ( 'NONE', #29, 3.000000000000000444 ) ;
#208 = FACE_OUTER_BOUND ( 'NONE', #26, .T. ) ;
#209 = DIRECTION ( 'NONE',  ( 0.000000000000000000, 0.000000000000000000, 1.000000000000000000 ) ) ;
#210 = EDGE_CURVE ( 'NONE', #157, #199, #74, .T. ) ;
#211 = APPROVAL_STATUS ( 'not_yet_approved' ) ;
#212 = PRODUCT ( 'e236', 'e236', '', ( #91 ) ) ;
#213 = DIRECTION ( 'NONE',  ( 1.000000000000000000, 0.000000000000000000, -0.000000000000000000 ) ) ;
#214 = APPROVAL_PERSON_ORGANIZATION ( #241, #163, #235 ) ;
#215 = CALENDAR_DATE ( 2023, 13, 2 ) ;
#216 = CARTESIAN_POINT ( 'NONE',  ( 6.000000000000000888, 7.347880794884120722E-16, 5.000000000000000000 ) ) ;
#217 = APPROVAL_DATE_TIME ( #41, #28 ) ;
#218 = DIRECTION ( 'NONE',  ( -0.000000000000000000, -0.000000000000000000, -1.000000000000000000 ) ) ;
#219 = AXIS2_PLACEMENT_3D ( 'NONE', #84, #32, #170 ) ;
#220 = PERSON_AND_ORGANIZATION_ROLE ( 'classification_officer' ) ;
#221 = APPROVAL_PERSON_ORGANIZATION ( #224, #28, #244 ) ;
#222 = UNCERTAINTY_MEASURE_WITH_UNIT (LENGTH_MEASURE( 1.000000000000000082E-05 ), #50, 'distance_accuracy_value', 'NONE');
#223 = ORIENTED_EDGE ( 'NONE', *, *, #183, .F. ) ;
#224 = PERSON_AND_ORGANIZATION ( #75, #37 ) ;
#225 = CC_DESIGN_APPROVAL ( #163, ( #229 ) ) ;
#226 = CARTESIAN_POINT ( 'NONE',  ( 0.000000000000000000, 0.000000000000000000, 5.000000000000000000 ) ) ;
#227 = AXIS2_PLACEMENT_3D ( 'NONE', #134, #218, #228 ) ;
#228 = DIRECTION ( 'NONE',  ( -1.000000000000000000, 0.000000000000000000, 0.000000000000000000 ) ) ;
#229 = PRODUCT_DEFINITION ( 'NEZNÁMÝ', '', #121, #248 ) ;
#230 = LOCAL_TIME ( 16, 45, 51.00000000000000000, #76 ) ;
#231 = CARTESIAN_POINT ( 'NONE',  ( -6.000000000000000888, 0.000000000000000000, 5.000000000000000000 ) ) ;
#232 = SECURITY_CLASSIFICATION ( '', '', #9 ) ;
#233 = DIRECTION ( 'NONE',  ( 0.000000000000000000, 0.000000000000000000, 1.000000000000000000 ) ) ;
#234 = CARTESIAN_POINT ( 'NONE',  ( 0.000000000000000000, 0.000000000000000000, 0.000000000000000000 ) ) ;
#235 = APPROVAL_ROLE ( '' ) ;
#236 = CIRCLE ( 'NONE', #219, 3.000000000000000444 ) ;
#237 = ADVANCED_FACE ( 'NONE', ( #21 ), #2, .F. ) ;
#238 = DIRECTION ( 'NONE',  ( 0.000000000000000000, 0.000000000000000000, 1.000000000000000000 ) ) ;
#239 = CC_DESIGN_PERSON_AND_ORGANIZATION_ASSIGNMENT ( #152, #132, ( #121 ) ) ;
#240 = VERTEX_POINT ( 'NONE', #216 ) ;
#241 = PERSON_AND_ORGANIZATION ( #75, #37 ) ;
#242 = AXIS2_PLACEMENT_3D ( 'NONE', #191, #46, #15 ) ;
#243 = CC_DESIGN_PERSON_AND_ORGANIZATION_ASSIGNMENT ( #16, #54, ( #229 ) ) ;
#244 = APPROVAL_ROLE ( '' ) ;
#245 = ORIENTED_EDGE ( 'NONE', *, *, #90, .F. ) ;
#246 = FACE_OUTER_BOUND ( 'NONE', #23, .T. ) ;
#247 = AXIS2_PLACEMENT_3D ( 'NONE', #234, #209, #103 ) ;
#248 = DESIGN_CONTEXT ( 'detailed design', #141, 'design' ) ;
#249 = ORIENTED_EDGE ( 'NONE', *, *, #188, .T. ) ;
#250 = ORIENTED_EDGE ( 'NONE', *, *, #99, .F. ) ;
#251 = ORIENTED_EDGE ( 'NONE', *, *, #20, .T. ) ;
#252 =( GEOMETRIC_REPRESENTATION_CONTEXT ( 3 ) GLOBAL_UNCERTAINTY_ASSIGNED_CONTEXT ( ( #222 ) ) GLOBAL_UNIT_ASSIGNED_CONTEXT ( ( #50, #200, #172 ) ) REPRESENTATION_CONTEXT ( 'NONE', 'WORKASPACE' ) );
#253 = CARTESIAN_POINT ( 'NONE',  ( 0.000000000000000000, 0.000000000000000000, 5.000000000000000000 ) ) ;
#254 = CARTESIAN_POINT ( 'NONE',  ( 0.000000000000000000, 0.000000000000000000, 100.0000000000000000 ) ) ;
#255 = CC_DESIGN_PERSON_AND_ORGANIZATION_ASSIGNMENT ( #197, #131, ( #212 ) ) ;
ENDSEC;
END-ISO-10303-21;
