ISO-10303-21;
HEADER;
FILE_DESCRIPTION (( 'STEP AP203' ),
    '1' );
FILE_NAME ('a9ce.STEP',
    '2023-02-13T15:15:11',
    ( '' ),
    ( '' ),
    'SwSTEP 2.0',
    'SolidWorks 2019',
    '' );
FILE_SCHEMA (( 'CONFIG_CONTROL_DESIGN' ));
ENDSEC;

DATA;
#1 = APPROVAL_ROLE ( '' ) ;
#2 = ORIENTED_EDGE ( 'NONE', *, *, #74, .T. ) ;
#3 = CARTESIAN_POINT ( 'NONE',  ( -3.500000000000000000, 0.000000000000000000, 5.000000000000000000 ) ) ;
#4 = ORIENTED_EDGE ( 'NONE', *, *, #195, .T. ) ;
#5 = EDGE_CURVE ( 'NONE', #129, #134, #118, .T. ) ;
#6 = CARTESIAN_POINT ( 'NONE',  ( 0.000000000000000000, 0.000000000000000000, 5.000000000000000000 ) ) ;
#7 = DATE_AND_TIME ( #184, #108 ) ;
#8 = PERSON_AND_ORGANIZATION_ROLE ( 'design_owner' ) ;
#9 = PERSON_AND_ORGANIZATION ( #26, #63 ) ;
#10 = DIRECTION ( 'NONE',  ( 1.000000000000000000, 0.000000000000000000, 0.000000000000000000 ) ) ;
#11 = CC_DESIGN_PERSON_AND_ORGANIZATION_ASSIGNMENT ( #190, #61, ( #138 ) ) ;
#12 = COORDINATED_UNIVERSAL_TIME_OFFSET ( 1, 0, .AHEAD. ) ;
#13 = CARTESIAN_POINT ( 'NONE',  ( 3.500000000000000000, 4.286263797015736595E-16, 5.000000000000000000 ) ) ;
#14 = DIRECTION ( 'NONE',  ( 0.000000000000000000, 0.000000000000000000, 1.000000000000000000 ) ) ;
#15 = ADVANCED_FACE ( 'NONE', ( #58 ), #217, .T. ) ;
#16 = DATE_AND_TIME ( #252, #87 ) ;
#17 = CC_DESIGN_SECURITY_CLASSIFICATION ( #235, ( #138 ) ) ;
#18 = APPLICATION_PROTOCOL_DEFINITION ( 'international standard', 'config_control_design', 1994, #250 ) ;
#19 = EDGE_CURVE ( 'NONE', #86, #114, #38, .T. ) ;
#20 = ORIENTED_EDGE ( 'NONE', *, *, #5, .T. ) ;
#21 = VECTOR ( 'NONE', #123, 1000.000000000000000 ) ;
#22 = CIRCLE ( 'NONE', #182, 6.000000000000000888 ) ;
#23 = ORIENTED_EDGE ( 'NONE', *, *, #199, .T. ) ;
#24 = FACE_OUTER_BOUND ( 'NONE', #88, .T. ) ;
#25 = VERTEX_POINT ( 'NONE', #201 ) ;
#26 = PERSON ( 'NEURÈENÝ', 'NEURÈENÝ', 'NEURÈENÝ', ('NEURÈENÝ'), ('NEURÈENÝ'), ('NEURÈENÝ') ) ;
#27 = VECTOR ( 'NONE', #119, 1000.000000000000000 ) ;
#28 = DIRECTION ( 'NONE',  ( 0.000000000000000000, 0.000000000000000000, 1.000000000000000000 ) ) ;
#29 = EDGE_LOOP ( 'NONE', ( #219, #116 ) ) ;
#30 = DIRECTION ( 'NONE',  ( 1.000000000000000000, 0.000000000000000000, 0.000000000000000000 ) ) ;
#31 = DIRECTION ( 'NONE',  ( -1.000000000000000000, 0.000000000000000000, 0.000000000000000000 ) ) ;
#32 = APPLICATION_PROTOCOL_DEFINITION ( 'international standard', 'config_control_design', 1994, #110 ) ;
#33 = CC_DESIGN_PERSON_AND_ORGANIZATION_ASSIGNMENT ( #124, #239, ( #138 ) ) ;
#34 = PLANE ( 'NONE',  #113 ) ;
#35 = APPROVAL_DATE_TIME ( #167, #54 ) ;
#36 = CARTESIAN_POINT ( 'NONE',  ( 0.000000000000000000, 0.000000000000000000, 160.0000000000000000 ) ) ;
#37 =( NAMED_UNIT ( * ) SI_UNIT ( $, .STERADIAN. ) SOLID_ANGLE_UNIT ( ) );
#38 = CIRCLE ( 'NONE', #176, 3.500000000000000000 ) ;
#39 = AXIS2_PLACEMENT_3D ( 'NONE', #154, #28, #230 ) ;
#40 = CALENDAR_DATE ( 2023, 13, 2 ) ;
#41 = PERSON_AND_ORGANIZATION_ROLE ( 'classification_officer' ) ;
#42 = CARTESIAN_POINT ( 'NONE',  ( 0.000000000000000000, 0.000000000000000000, 160.0000000000000000 ) ) ;
#43 = ADVANCED_FACE ( 'NONE', ( #94 ), #75, .T. ) ;
#44 = CIRCLE ( 'NONE', #193, 6.000000000000000888 ) ;
#45 = ORIENTED_EDGE ( 'NONE', *, *, #85, .F. ) ;
#46 = UNCERTAINTY_MEASURE_WITH_UNIT (LENGTH_MEASURE( 1.000000000000000082E-05 ), #170, 'distance_accuracy_value', 'NONE');
#47 = ORIENTED_EDGE ( 'NONE', *, *, #92, .T. ) ;
#48 = APPROVAL_PERSON_ORGANIZATION ( #62, #54, #1 ) ;
#49 = CARTESIAN_POINT ( 'NONE',  ( 6.000000000000000888, 7.347880794884120722E-16, 5.000000000000000000 ) ) ;
#50 = EDGE_CURVE ( 'NONE', #194, #112, #211, .T. ) ;
#51 = ORIENTED_EDGE ( 'NONE', *, *, #67, .T. ) ;
#52 = ORIENTED_EDGE ( 'NONE', *, *, #199, .F. ) ;
#53 = PERSON_AND_ORGANIZATION ( #26, #63 ) ;
#54 = APPROVAL ( #126, 'NEURÈENÝ' ) ;
#55 = AXIS2_PLACEMENT_3D ( 'NONE', #96, #160, #31 ) ;
#56 =( GEOMETRIC_REPRESENTATION_CONTEXT ( 3 ) GLOBAL_UNCERTAINTY_ASSIGNED_CONTEXT ( ( #46 ) ) GLOBAL_UNIT_ASSIGNED_CONTEXT ( ( #170, #104, #37 ) ) REPRESENTATION_CONTEXT ( 'NONE', 'WORKASPACE' ) );
#57 = ORIENTED_EDGE ( 'NONE', *, *, #50, .T. ) ;
#58 = FACE_OUTER_BOUND ( 'NONE', #59, .T. ) ;
#59 = EDGE_LOOP ( 'NONE', ( #227, #246, #2, #215 ) ) ;
#60 = APPROVAL_DATE_TIME ( #7, #237 ) ;
#61 = PERSON_AND_ORGANIZATION_ROLE ( 'design_supplier' ) ;
#62 = PERSON_AND_ORGANIZATION ( #26, #63 ) ;
#63 = ORGANIZATION ( 'NEURÈENÝ', 'NEURÈENÝ', '' ) ;
#64 = DIRECTION ( 'NONE',  ( 1.000000000000000000, 0.000000000000000000, -0.000000000000000000 ) ) ;
#65 = DATE_TIME_ROLE ( 'classification_date' ) ;
#66 = DESIGN_CONTEXT ( 'detailed design', #110, 'design' ) ;
#67 = EDGE_CURVE ( 'NONE', #112, #194, #72, .T. ) ;
#68 = COORDINATED_UNIVERSAL_TIME_OFFSET ( 1, 0, .AHEAD. ) ;
#69 = APPROVAL_PERSON_ORGANIZATION ( #83, #197, #165 ) ;
#70 = EDGE_LOOP ( 'NONE', ( #76, #130 ) ) ;
#71 = VERTEX_POINT ( 'NONE', #251 ) ;
#72 = CIRCLE ( 'NONE', #196, 3.500000000000000000 ) ;
#73 = CARTESIAN_POINT ( 'NONE',  ( -3.500000000000000000, 0.000000000000000000, 160.0000000000000000 ) ) ;
#74 = EDGE_CURVE ( 'NONE', #25, #71, #234, .T. ) ;
#75 = CYLINDRICAL_SURFACE ( 'NONE', #55, 3.500000000000000000 ) ;
#76 = ORIENTED_EDGE ( 'NONE', *, *, #67, .F. ) ;
#77 = DIRECTION ( 'NONE',  ( -1.000000000000000000, 0.000000000000000000, 0.000000000000000000 ) ) ;
#78 = ADVANCED_FACE ( 'NONE', ( #100 ), #186, .T. ) ;
#79 = DIRECTION ( 'NONE',  ( 0.000000000000000000, 0.000000000000000000, 1.000000000000000000 ) ) ;
#80 = SHAPE_DEFINITION_REPRESENTATION ( #142, #153 ) ;
#81 = ADVANCED_FACE ( 'NONE', ( #185, #24 ), #34, .T. ) ;
#82 = PLANE ( 'NONE',  #214 ) ;
#83 = PERSON_AND_ORGANIZATION ( #26, #63 ) ;
#84 = LOCAL_TIME ( 16, 15, 11.00000000000000000, #208 ) ;
#85 = EDGE_CURVE ( 'NONE', #114, #86, #245, .T. ) ;
#86 = VERTEX_POINT ( 'NONE', #233 ) ;
#87 = LOCAL_TIME ( 16, 15, 11.00000000000000000, #101 ) ;
#88 = EDGE_LOOP ( 'NONE', ( #232, #152 ) ) ;
#89 = DIRECTION ( 'NONE',  ( 1.000000000000000000, 0.000000000000000000, 0.000000000000000000 ) ) ;
#90 = ORIENTED_EDGE ( 'NONE', *, *, #92, .F. ) ;
#91 = CARTESIAN_POINT ( 'NONE',  ( 0.000000000000000000, 0.000000000000000000, 5.000000000000000000 ) ) ;
#92 = EDGE_CURVE ( 'NONE', #86, #194, #207, .T. ) ;
#93 = DIRECTION ( 'NONE',  ( -0.000000000000000000, -0.000000000000000000, -1.000000000000000000 ) ) ;
#94 = FACE_OUTER_BOUND ( 'NONE', #156, .T. ) ;
#95 = CC_DESIGN_APPROVAL ( #197, ( #235 ) ) ;
#96 = CARTESIAN_POINT ( 'NONE',  ( 0.000000000000000000, 0.000000000000000000, 160.0000000000000000 ) ) ;
#97 = COORDINATED_UNIVERSAL_TIME_OFFSET ( 1, 0, .AHEAD. ) ;
#98 = CARTESIAN_POINT ( 'NONE',  ( -6.000000000000000888, 0.000000000000000000, 5.000000000000000000 ) ) ;
#99 = CARTESIAN_POINT ( 'NONE',  ( 0.000000000000000000, 0.000000000000000000, 5.000000000000000000 ) ) ;
#100 = FACE_OUTER_BOUND ( 'NONE', #155, .T. ) ;
#101 = COORDINATED_UNIVERSAL_TIME_OFFSET ( 1, 0, .AHEAD. ) ;
#102 = PRODUCT_DEFINITION ( 'NEZNÁMÝ', '', #138, #66 ) ;
#103 = DATE_AND_TIME ( #223, #247 ) ;
#104 =( NAMED_UNIT ( * ) PLANE_ANGLE_UNIT ( ) SI_UNIT ( $, .RADIAN. ) );
#105 = AXIS2_PLACEMENT_3D ( 'NONE', #36, #226, #77 ) ;
#106 = ORIENTED_EDGE ( 'NONE', *, *, #19, .T. ) ;
#107 = APPROVAL_DATE_TIME ( #16, #197 ) ;
#108 = LOCAL_TIME ( 16, 15, 11.00000000000000000, #97 ) ;
#109 = CARTESIAN_POINT ( 'NONE',  ( 0.000000000000000000, 0.000000000000000000, 0.000000000000000000 ) ) ;
#110 = APPLICATION_CONTEXT ( 'configuration controlled 3d designs of mechanical parts and assemblies' ) ;
#111 = PLANE ( 'NONE',  #135 ) ;
#112 = VERTEX_POINT ( 'NONE', #3 ) ;
#113 = AXIS2_PLACEMENT_3D ( 'NONE', #99, #79, #125 ) ;
#114 = VERTEX_POINT ( 'NONE', #150 ) ;
#115 = CARTESIAN_POINT ( 'NONE',  ( 0.000000000000000000, 0.000000000000000000, 160.0000000000000000 ) ) ;
#116 = ORIENTED_EDGE ( 'NONE', *, *, #195, .F. ) ;
#117 = VECTOR ( 'NONE', #228, 1000.000000000000000 ) ;
#118 = LINE ( 'NONE', #132, #27 ) ;
#119 = DIRECTION ( 'NONE',  ( -0.000000000000000000, -0.000000000000000000, -1.000000000000000000 ) ) ;
#120 = CARTESIAN_POINT ( 'NONE',  ( 0.000000000000000000, 0.000000000000000000, 5.000000000000000000 ) ) ;
#121 = APPROVAL_ROLE ( '' ) ;
#122 = FACE_OUTER_BOUND ( 'NONE', #147, .T. ) ;
#123 = DIRECTION ( 'NONE',  ( -0.000000000000000000, -0.000000000000000000, -1.000000000000000000 ) ) ;
#124 = PERSON_AND_ORGANIZATION ( #26, #63 ) ;
#125 = DIRECTION ( 'NONE',  ( 1.000000000000000000, 0.000000000000000000, -0.000000000000000000 ) ) ;
#126 = APPROVAL_STATUS ( 'not_yet_approved' ) ;
#127 = CALENDAR_DATE ( 2023, 13, 2 ) ;
#128 = APPROVAL_STATUS ( 'not_yet_approved' ) ;
#129 = VERTEX_POINT ( 'NONE', #49 ) ;
#130 = ORIENTED_EDGE ( 'NONE', *, *, #50, .F. ) ;
#131 = DIRECTION ( 'NONE',  ( -0.000000000000000000, -0.000000000000000000, -1.000000000000000000 ) ) ;
#132 = CARTESIAN_POINT ( 'NONE',  ( 6.000000000000000888, 7.347880794884120722E-16, 5.000000000000000000 ) ) ;
#133 = CARTESIAN_POINT ( 'NONE',  ( 3.500000000000000000, 4.286263797015736595E-16, 160.0000000000000000 ) ) ;
#134 = VERTEX_POINT ( 'NONE', #163 ) ;
#135 = AXIS2_PLACEMENT_3D ( 'NONE', #42, #14, #64 ) ;
#136 = CARTESIAN_POINT ( 'NONE',  ( 0.000000000000000000, 0.000000000000000000, 160.0000000000000000 ) ) ;
#137 = ORIENTED_EDGE ( 'NONE', *, *, #19, .F. ) ;
#138 = PRODUCT_DEFINITION_FORMATION_WITH_SPECIFIED_SOURCE ( 'LIBOVOLNÝ', '', #166, .NOT_KNOWN. ) ;
#139 = DIRECTION ( 'NONE',  ( -0.000000000000000000, -0.000000000000000000, -1.000000000000000000 ) ) ;
#140 = EDGE_CURVE ( 'NONE', #25, #129, #172, .T. ) ;
#141 = CYLINDRICAL_SURFACE ( 'NONE', #159, 6.000000000000000888 ) ;
#142 = PRODUCT_DEFINITION_SHAPE ( 'NONE', 'NONE',  #102 ) ;
#143 = AXIS2_PLACEMENT_3D ( 'NONE', #115, #148, #205 ) ;
#144 = DIRECTION ( 'NONE',  ( 1.000000000000000000, 0.000000000000000000, 0.000000000000000000 ) ) ;
#145 = CC_DESIGN_APPROVAL ( #54, ( #138 ) ) ;
#146 = CC_DESIGN_DATE_AND_TIME_ASSIGNMENT ( #103, #173, ( #102 ) ) ;
#147 = EDGE_LOOP ( 'NONE', ( #162, #106 ) ) ;
#148 = DIRECTION ( 'NONE',  ( 0.000000000000000000, 0.000000000000000000, 1.000000000000000000 ) ) ;
#149 = CIRCLE ( 'NONE', #39, 6.000000000000000888 ) ;
#150 = CARTESIAN_POINT ( 'NONE',  ( -3.500000000000000000, 0.000000000000000000, 160.0000000000000000 ) ) ;
#151 = PRODUCT_RELATED_PRODUCT_CATEGORY ( 'detail', '', ( #166 ) ) ;
#152 = ORIENTED_EDGE ( 'NONE', *, *, #212, .T. ) ;
#153 = ADVANCED_BREP_SHAPE_REPRESENTATION ( 'a9ce', ( #164, #158 ), #56 ) ;
#154 = CARTESIAN_POINT ( 'NONE',  ( 0.000000000000000000, 0.000000000000000000, 0.000000000000000000 ) ) ;
#155 = EDGE_LOOP ( 'NONE', ( #137, #47, #57, #52 ) ) ;
#156 = EDGE_LOOP ( 'NONE', ( #90, #45, #23, #51 ) ) ;
#157 = CLOSED_SHELL ( 'NONE', ( #78, #181, #15, #81, #248, #43, #229 ) ) ;
#158 = AXIS2_PLACEMENT_3D ( 'NONE', #109, #174, #144 ) ;
#159 = AXIS2_PLACEMENT_3D ( 'NONE', #222, #131, #209 ) ;
#160 = DIRECTION ( 'NONE',  ( -0.000000000000000000, -0.000000000000000000, -1.000000000000000000 ) ) ;
#161 = APPROVAL_STATUS ( 'not_yet_approved' ) ;
#162 = ORIENTED_EDGE ( 'NONE', *, *, #85, .T. ) ;
#163 = CARTESIAN_POINT ( 'NONE',  ( 6.000000000000000888, 7.347880794884120722E-16, 0.000000000000000000 ) ) ;
#164 = MANIFOLD_SOLID_BREP ( 'Pøidat vysunutím3', #157 ) ;
#165 = APPROVAL_ROLE ( '' ) ;
#166 = PRODUCT ( 'a9ce', 'a9ce', '', ( #255 ) ) ;
#167 = DATE_AND_TIME ( #40, #84 ) ;
#168 = CARTESIAN_POINT ( 'NONE',  ( 0.000000000000000000, 0.000000000000000000, 0.000000000000000000 ) ) ;
#169 = SECURITY_CLASSIFICATION_LEVEL ( 'unclassified' ) ;
#170 =( LENGTH_UNIT ( ) NAMED_UNIT ( * ) SI_UNIT ( .MILLI., .METRE. ) );
#171 = AXIS2_PLACEMENT_3D ( 'NONE', #200, #93, #231 ) ;
#172 = CIRCLE ( 'NONE', #204, 6.000000000000000888 ) ;
#173 = DATE_TIME_ROLE ( 'creation_date' ) ;
#174 = DIRECTION ( 'NONE',  ( 0.000000000000000000, 0.000000000000000000, 1.000000000000000000 ) ) ;
#175 = CC_DESIGN_PERSON_AND_ORGANIZATION_ASSIGNMENT ( #240, #41, ( #235 ) ) ;
#176 = AXIS2_PLACEMENT_3D ( 'NONE', #136, #220, #30 ) ;
#177 = ORIENTED_EDGE ( 'NONE', *, *, #212, .F. ) ;
#178 = CARTESIAN_POINT ( 'NONE',  ( 0.000000000000000000, 0.000000000000000000, 0.000000000000000000 ) ) ;
#179 = DIRECTION ( 'NONE',  ( 0.000000000000000000, 0.000000000000000000, 1.000000000000000000 ) ) ;
#180 = EDGE_LOOP ( 'NONE', ( #177, #20, #4, #244 ) ) ;
#181 = ADVANCED_FACE ( 'NONE', ( #198 ), #141, .T. ) ;
#182 = AXIS2_PLACEMENT_3D ( 'NONE', #178, #188, #216 ) ;
#183 = CARTESIAN_POINT ( 'NONE',  ( 0.000000000000000000, 0.000000000000000000, 5.000000000000000000 ) ) ;
#184 = CALENDAR_DATE ( 2023, 13, 2 ) ;
#185 = FACE_BOUND ( 'NONE', #70, .T. ) ;
#186 = CYLINDRICAL_SURFACE ( 'NONE', #105, 3.500000000000000000 ) ;
#187 = DATE_AND_TIME ( #127, #241 ) ;
#188 = DIRECTION ( 'NONE',  ( 0.000000000000000000, 0.000000000000000000, 1.000000000000000000 ) ) ;
#189 = DIRECTION ( 'NONE',  ( 0.000000000000000000, 0.000000000000000000, 1.000000000000000000 ) ) ;
#190 = PERSON_AND_ORGANIZATION ( #26, #63 ) ;
#191 = CC_DESIGN_PERSON_AND_ORGANIZATION_ASSIGNMENT ( #210, #254, ( #102 ) ) ;
#192 = AXIS2_PLACEMENT_3D ( 'NONE', #120, #202, #10 ) ;
#193 = AXIS2_PLACEMENT_3D ( 'NONE', #91, #179, #243 ) ;
#194 = VERTEX_POINT ( 'NONE', #13 ) ;
#195 = EDGE_CURVE ( 'NONE', #134, #71, #22, .T. ) ;
#196 = AXIS2_PLACEMENT_3D ( 'NONE', #183, #249, #206 ) ;
#197 = APPROVAL ( #128, 'NEURÈENÝ' ) ;
#198 = FACE_OUTER_BOUND ( 'NONE', #180, .T. ) ;
#199 = EDGE_CURVE ( 'NONE', #114, #112, #242, .T. ) ;
#200 = CARTESIAN_POINT ( 'NONE',  ( 0.000000000000000000, 0.000000000000000000, 5.000000000000000000 ) ) ;
#201 = CARTESIAN_POINT ( 'NONE',  ( -6.000000000000000888, 0.000000000000000000, 5.000000000000000000 ) ) ;
#202 = DIRECTION ( 'NONE',  ( 0.000000000000000000, 0.000000000000000000, 1.000000000000000000 ) ) ;
#203 = VECTOR ( 'NONE', #139, 1000.000000000000000 ) ;
#204 = AXIS2_PLACEMENT_3D ( 'NONE', #6, #236, #89 ) ;
#205 = DIRECTION ( 'NONE',  ( 1.000000000000000000, 0.000000000000000000, 0.000000000000000000 ) ) ;
#206 = DIRECTION ( 'NONE',  ( 1.000000000000000000, 0.000000000000000000, 0.000000000000000000 ) ) ;
#207 = LINE ( 'NONE', #133, #21 ) ;
#208 = COORDINATED_UNIVERSAL_TIME_OFFSET ( 1, 0, .AHEAD. ) ;
#209 = DIRECTION ( 'NONE',  ( -1.000000000000000000, 0.000000000000000000, 0.000000000000000000 ) ) ;
#210 = PERSON_AND_ORGANIZATION ( #26, #63 ) ;
#211 = CIRCLE ( 'NONE', #192, 3.500000000000000000 ) ;
#212 = EDGE_CURVE ( 'NONE', #129, #25, #44, .T. ) ;
#213 = CC_DESIGN_DATE_AND_TIME_ASSIGNMENT ( #187, #65, ( #235 ) ) ;
#214 = AXIS2_PLACEMENT_3D ( 'NONE', #168, #189, #224 ) ;
#215 = ORIENTED_EDGE ( 'NONE', *, *, #221, .T. ) ;
#216 = DIRECTION ( 'NONE',  ( 1.000000000000000000, 0.000000000000000000, 0.000000000000000000 ) ) ;
#217 = CYLINDRICAL_SURFACE ( 'NONE', #171, 6.000000000000000888 ) ;
#218 = CC_DESIGN_PERSON_AND_ORGANIZATION_ASSIGNMENT ( #53, #8, ( #166 ) ) ;
#219 = ORIENTED_EDGE ( 'NONE', *, *, #221, .F. ) ;
#220 = DIRECTION ( 'NONE',  ( 0.000000000000000000, 0.000000000000000000, 1.000000000000000000 ) ) ;
#221 = EDGE_CURVE ( 'NONE', #71, #134, #149, .T. ) ;
#222 = CARTESIAN_POINT ( 'NONE',  ( 0.000000000000000000, 0.000000000000000000, 5.000000000000000000 ) ) ;
#223 = CALENDAR_DATE ( 2023, 13, 2 ) ;
#224 = DIRECTION ( 'NONE',  ( 1.000000000000000000, 0.000000000000000000, -0.000000000000000000 ) ) ;
#225 = APPROVAL_PERSON_ORGANIZATION ( #9, #237, #121 ) ;
#226 = DIRECTION ( 'NONE',  ( -0.000000000000000000, -0.000000000000000000, -1.000000000000000000 ) ) ;
#227 = ORIENTED_EDGE ( 'NONE', *, *, #5, .F. ) ;
#228 = DIRECTION ( 'NONE',  ( -0.000000000000000000, -0.000000000000000000, -1.000000000000000000 ) ) ;
#229 = ADVANCED_FACE ( 'NONE', ( #122 ), #111, .T. ) ;
#230 = DIRECTION ( 'NONE',  ( 1.000000000000000000, 0.000000000000000000, 0.000000000000000000 ) ) ;
#231 = DIRECTION ( 'NONE',  ( -1.000000000000000000, 0.000000000000000000, 0.000000000000000000 ) ) ;
#232 = ORIENTED_EDGE ( 'NONE', *, *, #140, .T. ) ;
#233 = CARTESIAN_POINT ( 'NONE',  ( 3.500000000000000000, 4.286263797015736595E-16, 160.0000000000000000 ) ) ;
#234 = LINE ( 'NONE', #98, #203 ) ;
#235 = SECURITY_CLASSIFICATION ( '', '', #169 ) ;
#236 = DIRECTION ( 'NONE',  ( 0.000000000000000000, 0.000000000000000000, 1.000000000000000000 ) ) ;
#237 = APPROVAL ( #161, 'NEURÈENÝ' ) ;
#238 = FACE_OUTER_BOUND ( 'NONE', #29, .T. ) ;
#239 = PERSON_AND_ORGANIZATION_ROLE ( 'creator' ) ;
#240 = PERSON_AND_ORGANIZATION ( #26, #63 ) ;
#241 = LOCAL_TIME ( 16, 15, 11.00000000000000000, #12 ) ;
#242 = LINE ( 'NONE', #73, #117 ) ;
#243 = DIRECTION ( 'NONE',  ( 1.000000000000000000, 0.000000000000000000, 0.000000000000000000 ) ) ;
#244 = ORIENTED_EDGE ( 'NONE', *, *, #74, .F. ) ;
#245 = CIRCLE ( 'NONE', #143, 3.500000000000000000 ) ;
#246 = ORIENTED_EDGE ( 'NONE', *, *, #140, .F. ) ;
#247 = LOCAL_TIME ( 16, 15, 11.00000000000000000, #68 ) ;
#248 = ADVANCED_FACE ( 'NONE', ( #238 ), #82, .F. ) ;
#249 = DIRECTION ( 'NONE',  ( 0.000000000000000000, 0.000000000000000000, 1.000000000000000000 ) ) ;
#250 = APPLICATION_CONTEXT ( 'configuration controlled 3d designs of mechanical parts and assemblies' ) ;
#251 = CARTESIAN_POINT ( 'NONE',  ( -6.000000000000000888, 0.000000000000000000, 0.000000000000000000 ) ) ;
#252 = CALENDAR_DATE ( 2023, 13, 2 ) ;
#253 = CC_DESIGN_APPROVAL ( #237, ( #102 ) ) ;
#254 = PERSON_AND_ORGANIZATION_ROLE ( 'creator' ) ;
#255 = MECHANICAL_CONTEXT ( 'NONE', #250, 'mechanical' ) ;
ENDSEC;
END-ISO-10303-21;
