ISO-10303-21;
HEADER;
FILE_DESCRIPTION (( 'STEP AP203' ),
    '1' );
FILE_NAME ('5298.STEP',
    '2023-02-13T17:04:54',
    ( '' ),
    ( '' ),
    'SwSTEP 2.0',
    'SolidWorks 2019',
    '' );
FILE_SCHEMA (( 'CONFIG_CONTROL_DESIGN' ));
ENDSEC;

DATA;
#1 = LOCAL_TIME ( 18, 4, 54.00000000000000000, #210 ) ;
#2 = LINE ( 'NONE', #165, #20 ) ;
#3 = AXIS2_PLACEMENT_3D ( 'NONE', #55, #137, #58 ) ;
#4 = COORDINATED_UNIVERSAL_TIME_OFFSET ( 1, 0, .AHEAD. ) ;
#5 = ADVANCED_BREP_SHAPE_REPRESENTATION ( '5298', ( #127, #199 ), #236 ) ;
#6 = DIRECTION ( 'NONE',  ( -0.000000000000000000, -0.000000000000000000, -1.000000000000000000 ) ) ;
#7 = CC_DESIGN_PERSON_AND_ORGANIZATION_ASSIGNMENT ( #166, #110, ( #50 ) ) ;
#8 = COORDINATED_UNIVERSAL_TIME_OFFSET ( 1, 0, .AHEAD. ) ;
#9 = EDGE_LOOP ( 'NONE', ( #104, #160, #129, #106 ) ) ;
#10 =( NAMED_UNIT ( * ) PLANE_ANGLE_UNIT ( ) SI_UNIT ( $, .RADIAN. ) );
#11 = CIRCLE ( 'NONE', #102, 1.250000000000000000 ) ;
#12 = APPROVAL_STATUS ( 'not_yet_approved' ) ;
#13 = ORIENTED_EDGE ( 'NONE', *, *, #121, .F. ) ;
#14 = APPROVAL_DATE_TIME ( #170, #157 ) ;
#15 = CARTESIAN_POINT ( 'NONE',  ( 0.000000000000000000, 0.000000000000000000, 0.000000000000000000 ) ) ;
#16 = APPROVAL_ROLE ( '' ) ;
#17 = FACE_OUTER_BOUND ( 'NONE', #184, .T. ) ;
#18 = AXIS2_PLACEMENT_3D ( 'NONE', #15, #92, #171 ) ;
#19 = DIRECTION ( 'NONE',  ( 0.000000000000000000, 0.000000000000000000, 1.000000000000000000 ) ) ;
#20 = VECTOR ( 'NONE', #227, 1000.000000000000000 ) ;
#21 = DIRECTION ( 'NONE',  ( 0.000000000000000000, 0.000000000000000000, 1.000000000000000000 ) ) ;
#22 = SECURITY_CLASSIFICATION ( '', '', #52 ) ;
#23 = DIRECTION ( 'NONE',  ( 0.000000000000000000, 0.000000000000000000, 1.000000000000000000 ) ) ;
#24 = CARTESIAN_POINT ( 'NONE',  ( 0.000000000000000000, 0.000000000000000000, 0.000000000000000000 ) ) ;
#25 = DIRECTION ( 'NONE',  ( 0.000000000000000000, 0.000000000000000000, 1.000000000000000000 ) ) ;
#26 = APPROVAL_ROLE ( '' ) ;
#27 = ORIENTED_EDGE ( 'NONE', *, *, #59, .F. ) ;
#28 = LINE ( 'NONE', #164, #60 ) ;
#29 = PERSON_AND_ORGANIZATION_ROLE ( 'creator' ) ;
#30 = CC_DESIGN_APPROVAL ( #118, ( #83 ) ) ;
#31 = ORIENTED_EDGE ( 'NONE', *, *, #249, .T. ) ;
#32 = DIRECTION ( 'NONE',  ( 0.000000000000000000, 0.000000000000000000, 1.000000000000000000 ) ) ;
#33 = PERSON_AND_ORGANIZATION ( #123, #244 ) ;
#34 = CARTESIAN_POINT ( 'NONE',  ( 1.250000000000000000, 1.530808498934191571E-16, 125.0000000000000000 ) ) ;
#35 = DIRECTION ( 'NONE',  ( -1.000000000000000000, 0.000000000000000000, 0.000000000000000000 ) ) ;
#36 = CARTESIAN_POINT ( 'NONE',  ( -2.500000000000000000, 0.000000000000000000, 2.000000000000000000 ) ) ;
#37 = DIRECTION ( 'NONE',  ( 1.000000000000000000, 0.000000000000000000, 0.000000000000000000 ) ) ;
#38 = DIRECTION ( 'NONE',  ( -1.000000000000000000, 0.000000000000000000, 0.000000000000000000 ) ) ;
#39 = CIRCLE ( 'NONE', #181, 1.250000000000000000 ) ;
#40 = ORIENTED_EDGE ( 'NONE', *, *, #107, .F. ) ;
#41 = CALENDAR_DATE ( 2023, 13, 2 ) ;
#42 = EDGE_CURVE ( 'NONE', #125, #222, #85, .T. ) ;
#43 = DIRECTION ( 'NONE',  ( 1.000000000000000000, 0.000000000000000000, 0.000000000000000000 ) ) ;
#44 =( NAMED_UNIT ( * ) SI_UNIT ( $, .STERADIAN. ) SOLID_ANGLE_UNIT ( ) );
#45 = ORIENTED_EDGE ( 'NONE', *, *, #49, .T. ) ;
#46 = PLANE ( 'NONE',  #254 ) ;
#47 = CIRCLE ( 'NONE', #18, 2.500000000000000000 ) ;
#48 = VERTEX_POINT ( 'NONE', #82 ) ;
#49 = EDGE_CURVE ( 'NONE', #222, #245, #47, .T. ) ;
#50 = PRODUCT_DEFINITION_FORMATION_WITH_SPECIFIED_SOURCE ( 'LIBOVOLNÝ', '', #54, .NOT_KNOWN. ) ;
#51 = FACE_OUTER_BOUND ( 'NONE', #229, .T. ) ;
#52 = SECURITY_CLASSIFICATION_LEVEL ( 'unclassified' ) ;
#53 = DIRECTION ( 'NONE',  ( 1.000000000000000000, 0.000000000000000000, -0.000000000000000000 ) ) ;
#54 = PRODUCT ( '5298', '5298', '', ( #182 ) ) ;
#55 = CARTESIAN_POINT ( 'NONE',  ( 0.000000000000000000, 0.000000000000000000, 0.000000000000000000 ) ) ;
#56 = DIRECTION ( 'NONE',  ( 1.000000000000000000, 0.000000000000000000, 0.000000000000000000 ) ) ;
#57 = DESIGN_CONTEXT ( 'detailed design', #122, 'design' ) ;
#58 = DIRECTION ( 'NONE',  ( 1.000000000000000000, 0.000000000000000000, 0.000000000000000000 ) ) ;
#59 = EDGE_CURVE ( 'NONE', #48, #145, #62, .T. ) ;
#60 = VECTOR ( 'NONE', #243, 1000.000000000000000 ) ;
#61 = APPROVAL_PERSON_ORGANIZATION ( #33, #246, #185 ) ;
#62 = LINE ( 'NONE', #203, #77 ) ;
#63 = APPLICATION_PROTOCOL_DEFINITION ( 'international standard', 'config_control_design', 1994, #122 ) ;
#64 = VERTEX_POINT ( 'NONE', #162 ) ;
#65 = AXIS2_PLACEMENT_3D ( 'NONE', #232, #193, #53 ) ;
#66 = PERSON_AND_ORGANIZATION ( #123, #244 ) ;
#67 = FACE_OUTER_BOUND ( 'NONE', #90, .T. ) ;
#68 = ORIENTED_EDGE ( 'NONE', *, *, #253, .T. ) ;
#69 = CARTESIAN_POINT ( 'NONE',  ( 0.000000000000000000, 0.000000000000000000, 125.0000000000000000 ) ) ;
#70 = APPROVAL_DATE_TIME ( #108, #246 ) ;
#71 = FACE_BOUND ( 'NONE', #142, .T. ) ;
#72 = LOCAL_TIME ( 18, 4, 54.00000000000000000, #228 ) ;
#73 = CARTESIAN_POINT ( 'NONE',  ( 0.000000000000000000, 0.000000000000000000, 2.000000000000000000 ) ) ;
#74 = EDGE_CURVE ( 'NONE', #211, #245, #28, .T. ) ;
#75 = ADVANCED_FACE ( 'NONE', ( #67 ), #195, .T. ) ;
#76 = CIRCLE ( 'NONE', #136, 2.500000000000000000 ) ;
#77 = VECTOR ( 'NONE', #6, 1000.000000000000000 ) ;
#78 = APPLICATION_CONTEXT ( 'configuration controlled 3d designs of mechanical parts and assemblies' ) ;
#79 = CC_DESIGN_APPROVAL ( #246, ( #50 ) ) ;
#80 = FACE_OUTER_BOUND ( 'NONE', #206, .T. ) ;
#81 = DATE_AND_TIME ( #41, #175 ) ;
#82 = CARTESIAN_POINT ( 'NONE',  ( -1.250000000000000000, 0.000000000000000000, 125.0000000000000000 ) ) ;
#83 = PRODUCT_DEFINITION ( 'NEZNÁMÝ', '', #50, #57 ) ;
#84 = DATE_AND_TIME ( #189, #233 ) ;
#85 = LINE ( 'NONE', #111, #178 ) ;
#86 = AXIS2_PLACEMENT_3D ( 'NONE', #73, #234, #153 ) ;
#87 = CARTESIAN_POINT ( 'NONE',  ( 2.500000000000000000, 3.061616997868383141E-16, 2.000000000000000000 ) ) ;
#88 = DATE_TIME_ROLE ( 'classification_date' ) ;
#89 = ORIENTED_EDGE ( 'NONE', *, *, #187, .T. ) ;
#90 = EDGE_LOOP ( 'NONE', ( #242, #40, #148, #45 ) ) ;
#91 = DIRECTION ( 'NONE',  ( 0.000000000000000000, 0.000000000000000000, 1.000000000000000000 ) ) ;
#92 = DIRECTION ( 'NONE',  ( 0.000000000000000000, 0.000000000000000000, 1.000000000000000000 ) ) ;
#93 = CC_DESIGN_PERSON_AND_ORGANIZATION_ASSIGNMENT ( #66, #223, ( #50 ) ) ;
#94 = CYLINDRICAL_SURFACE ( 'NONE', #252, 1.250000000000000000 ) ;
#95 = PERSON_AND_ORGANIZATION_ROLE ( 'classification_officer' ) ;
#96 = CLOSED_SHELL ( 'NONE', ( #241, #161, #75, #138, #168, #255, #237 ) ) ;
#97 =( LENGTH_UNIT ( ) NAMED_UNIT ( * ) SI_UNIT ( .MILLI., .METRE. ) );
#98 = LOCAL_TIME ( 18, 4, 54.00000000000000000, #143 ) ;
#99 = APPROVAL_PERSON_ORGANIZATION ( #141, #118, #26 ) ;
#100 = FACE_OUTER_BOUND ( 'NONE', #188, .T. ) ;
#101 = CARTESIAN_POINT ( 'NONE',  ( 0.000000000000000000, 0.000000000000000000, 2.000000000000000000 ) ) ;
#102 = AXIS2_PLACEMENT_3D ( 'NONE', #159, #23, #180 ) ;
#103 = PERSON_AND_ORGANIZATION ( #123, #244 ) ;
#104 = ORIENTED_EDGE ( 'NONE', *, *, #209, .F. ) ;
#105 = DIRECTION ( 'NONE',  ( 0.000000000000000000, 0.000000000000000000, 1.000000000000000000 ) ) ;
#106 = ORIENTED_EDGE ( 'NONE', *, *, #207, .T. ) ;
#107 = EDGE_CURVE ( 'NONE', #125, #211, #212, .T. ) ;
#108 = DATE_AND_TIME ( #130, #72 ) ;
#109 = ORIENTED_EDGE ( 'NONE', *, *, #121, .T. ) ;
#110 = PERSON_AND_ORGANIZATION_ROLE ( 'creator' ) ;
#111 = CARTESIAN_POINT ( 'NONE',  ( -2.500000000000000000, 0.000000000000000000, 2.000000000000000000 ) ) ;
#112 = PERSON_AND_ORGANIZATION ( #123, #244 ) ;
#113 = DIRECTION ( 'NONE',  ( 1.000000000000000000, 0.000000000000000000, 0.000000000000000000 ) ) ;
#114 = CARTESIAN_POINT ( 'NONE',  ( 0.000000000000000000, 0.000000000000000000, 0.000000000000000000 ) ) ;
#115 = CARTESIAN_POINT ( 'NONE',  ( 0.000000000000000000, 0.000000000000000000, 125.0000000000000000 ) ) ;
#116 = DIRECTION ( 'NONE',  ( 0.000000000000000000, 0.000000000000000000, 1.000000000000000000 ) ) ;
#117 = APPROVAL_DATE_TIME ( #81, #118 ) ;
#118 = APPROVAL ( #202, 'NEURÈENÝ' ) ;
#119 = CC_DESIGN_PERSON_AND_ORGANIZATION_ASSIGNMENT ( #186, #95, ( #22 ) ) ;
#120 = AXIS2_PLACEMENT_3D ( 'NONE', #69, #135, #215 ) ;
#121 = EDGE_CURVE ( 'NONE', #211, #125, #76, .T. ) ;
#122 = APPLICATION_CONTEXT ( 'configuration controlled 3d designs of mechanical parts and assemblies' ) ;
#123 = PERSON ( 'NEURÈENÝ', 'NEURÈENÝ', 'NEURÈENÝ', ('NEURÈENÝ'), ('NEURÈENÝ'), ('NEURÈENÝ') ) ;
#124 = ORIENTED_EDGE ( 'NONE', *, *, #176, .F. ) ;
#125 = VERTEX_POINT ( 'NONE', #36 ) ;
#126 = CC_DESIGN_DATE_AND_TIME_ASSIGNMENT ( #250, #225, ( #83 ) ) ;
#127 = MANIFOLD_SOLID_BREP ( 'Pøidat vysunutím3', #96 ) ;
#128 = APPROVAL_STATUS ( 'not_yet_approved' ) ;
#129 = ORIENTED_EDGE ( 'NONE', *, *, #59, .T. ) ;
#130 = CALENDAR_DATE ( 2023, 13, 2 ) ;
#131 = EDGE_LOOP ( 'NONE', ( #201, #109 ) ) ;
#132 = CARTESIAN_POINT ( 'NONE',  ( 0.000000000000000000, 0.000000000000000000, 2.000000000000000000 ) ) ;
#133 = CALENDAR_DATE ( 2023, 13, 2 ) ;
#134 = PLANE ( 'NONE',  #155 ) ;
#135 = DIRECTION ( 'NONE',  ( -0.000000000000000000, -0.000000000000000000, -1.000000000000000000 ) ) ;
#136 = AXIS2_PLACEMENT_3D ( 'NONE', #248, #21, #113 ) ;
#137 = DIRECTION ( 'NONE',  ( 0.000000000000000000, 0.000000000000000000, 1.000000000000000000 ) ) ;
#138 = ADVANCED_FACE ( 'NONE', ( #71, #197 ), #150, .T. ) ;
#139 = DIRECTION ( 'NONE',  ( -0.000000000000000000, -0.000000000000000000, -1.000000000000000000 ) ) ;
#140 = APPROVAL_PERSON_ORGANIZATION ( #112, #157, #16 ) ;
#141 = PERSON_AND_ORGANIZATION ( #123, #244 ) ;
#142 = EDGE_LOOP ( 'NONE', ( #231, #147 ) ) ;
#143 = COORDINATED_UNIVERSAL_TIME_OFFSET ( 1, 0, .AHEAD. ) ;
#144 = UNCERTAINTY_MEASURE_WITH_UNIT (LENGTH_MEASURE( 1.000000000000000082E-05 ), #97, 'distance_accuracy_value', 'NONE');
#145 = VERTEX_POINT ( 'NONE', #216 ) ;
#146 = CALENDAR_DATE ( 2023, 13, 2 ) ;
#147 = ORIENTED_EDGE ( 'NONE', *, *, #249, .F. ) ;
#148 = ORIENTED_EDGE ( 'NONE', *, *, #42, .T. ) ;
#149 = VERTEX_POINT ( 'NONE', #34 ) ;
#150 = PLANE ( 'NONE',  #65 ) ;
#151 = AXIS2_PLACEMENT_3D ( 'NONE', #219, #19, #37 ) ;
#152 = CARTESIAN_POINT ( 'NONE',  ( 0.000000000000000000, 0.000000000000000000, 125.0000000000000000 ) ) ;
#153 = DIRECTION ( 'NONE',  ( -1.000000000000000000, 0.000000000000000000, 0.000000000000000000 ) ) ;
#154 = CARTESIAN_POINT ( 'NONE',  ( 2.500000000000000000, 3.061616997868383141E-16, 0.000000000000000000 ) ) ;
#155 = AXIS2_PLACEMENT_3D ( 'NONE', #114, #218, #173 ) ;
#156 = CIRCLE ( 'NONE', #172, 1.250000000000000000 ) ;
#157 = APPROVAL ( #12, 'NEURÈENÝ' ) ;
#158 = CC_DESIGN_SECURITY_CLASSIFICATION ( #22, ( #50 ) ) ;
#159 = CARTESIAN_POINT ( 'NONE',  ( 0.000000000000000000, 0.000000000000000000, 2.000000000000000000 ) ) ;
#160 = ORIENTED_EDGE ( 'NONE', *, *, #187, .F. ) ;
#161 = ADVANCED_FACE ( 'NONE', ( #17 ), #251, .T. ) ;
#162 = CARTESIAN_POINT ( 'NONE',  ( 1.250000000000000000, 1.530808498934191571E-16, 2.000000000000000000 ) ) ;
#163 = APPLICATION_PROTOCOL_DEFINITION ( 'international standard', 'config_control_design', 1994, #78 ) ;
#164 = CARTESIAN_POINT ( 'NONE',  ( 2.500000000000000000, 3.061616997868383141E-16, 2.000000000000000000 ) ) ;
#165 = CARTESIAN_POINT ( 'NONE',  ( 1.250000000000000000, 1.530808498934191571E-16, 125.0000000000000000 ) ) ;
#166 = PERSON_AND_ORGANIZATION ( #123, #244 ) ;
#167 = ORIENTED_EDGE ( 'NONE', *, *, #49, .F. ) ;
#168 = ADVANCED_FACE ( 'NONE', ( #100 ), #134, .F. ) ;
#169 = DIRECTION ( 'NONE',  ( 1.000000000000000000, 0.000000000000000000, -0.000000000000000000 ) ) ;
#170 = DATE_AND_TIME ( #146, #98 ) ;
#171 = DIRECTION ( 'NONE',  ( 1.000000000000000000, 0.000000000000000000, 0.000000000000000000 ) ) ;
#172 = AXIS2_PLACEMENT_3D ( 'NONE', #132, #32, #56 ) ;
#173 = DIRECTION ( 'NONE',  ( 1.000000000000000000, 0.000000000000000000, -0.000000000000000000 ) ) ;
#174 = CARTESIAN_POINT ( 'NONE',  ( 0.000000000000000000, 0.000000000000000000, 2.000000000000000000 ) ) ;
#175 = LOCAL_TIME ( 18, 4, 54.00000000000000000, #4 ) ;
#176 = EDGE_CURVE ( 'NONE', #245, #222, #200, .T. ) ;
#177 = CC_DESIGN_PERSON_AND_ORGANIZATION_ASSIGNMENT ( #103, #179, ( #54 ) ) ;
#178 = VECTOR ( 'NONE', #190, 1000.000000000000000 ) ;
#179 = PERSON_AND_ORGANIZATION_ROLE ( 'design_owner' ) ;
#180 = DIRECTION ( 'NONE',  ( 1.000000000000000000, 0.000000000000000000, 0.000000000000000000 ) ) ;
#181 = AXIS2_PLACEMENT_3D ( 'NONE', #221, #25, #220 ) ;
#182 = MECHANICAL_CONTEXT ( 'NONE', #78, 'mechanical' ) ;
#183 = ORIENTED_EDGE ( 'NONE', *, *, #42, .F. ) ;
#184 = EDGE_LOOP ( 'NONE', ( #13, #208, #247, #183 ) ) ;
#185 = APPROVAL_ROLE ( '' ) ;
#186 = PERSON_AND_ORGANIZATION ( #123, #244 ) ;
#187 = EDGE_CURVE ( 'NONE', #48, #149, #39, .T. ) ;
#188 = EDGE_LOOP ( 'NONE', ( #167, #124 ) ) ;
#189 = CALENDAR_DATE ( 2023, 13, 2 ) ;
#190 = DIRECTION ( 'NONE',  ( -0.000000000000000000, -0.000000000000000000, -1.000000000000000000 ) ) ;
#191 = FACE_OUTER_BOUND ( 'NONE', #9, .T. ) ;
#192 = PERSON_AND_ORGANIZATION ( #123, #244 ) ;
#193 = DIRECTION ( 'NONE',  ( 0.000000000000000000, 0.000000000000000000, 1.000000000000000000 ) ) ;
#194 = CYLINDRICAL_SURFACE ( 'NONE', #120, 1.250000000000000000 ) ;
#195 = CYLINDRICAL_SURFACE ( 'NONE', #240, 2.500000000000000000 ) ;
#196 = CC_DESIGN_DATE_AND_TIME_ASSIGNMENT ( #84, #88, ( #22 ) ) ;
#197 = FACE_OUTER_BOUND ( 'NONE', #131, .T. ) ;
#198 = DIRECTION ( 'NONE',  ( 1.000000000000000000, 0.000000000000000000, 0.000000000000000000 ) ) ;
#199 = AXIS2_PLACEMENT_3D ( 'NONE', #24, #105, #43 ) ;
#200 = CIRCLE ( 'NONE', #3, 2.500000000000000000 ) ;
#201 = ORIENTED_EDGE ( 'NONE', *, *, #107, .T. ) ;
#202 = APPROVAL_STATUS ( 'not_yet_approved' ) ;
#203 = CARTESIAN_POINT ( 'NONE',  ( -1.250000000000000000, 0.000000000000000000, 125.0000000000000000 ) ) ;
#204 = CIRCLE ( 'NONE', #151, 1.250000000000000000 ) ;
#205 = SHAPE_DEFINITION_REPRESENTATION ( #230, #5 ) ;
#206 = EDGE_LOOP ( 'NONE', ( #89, #68 ) ) ;
#207 = EDGE_CURVE ( 'NONE', #145, #64, #11, .T. ) ;
#208 = ORIENTED_EDGE ( 'NONE', *, *, #74, .T. ) ;
#209 = EDGE_CURVE ( 'NONE', #149, #64, #2, .T. ) ;
#210 = COORDINATED_UNIVERSAL_TIME_OFFSET ( 1, 0, .AHEAD. ) ;
#211 = VERTEX_POINT ( 'NONE', #87 ) ;
#212 = CIRCLE ( 'NONE', #224, 2.500000000000000000 ) ;
#213 = CARTESIAN_POINT ( 'NONE',  ( -2.500000000000000000, 0.000000000000000000, 0.000000000000000000 ) ) ;
#214 = ORIENTED_EDGE ( 'NONE', *, *, #253, .F. ) ;
#215 = DIRECTION ( 'NONE',  ( -1.000000000000000000, 0.000000000000000000, 0.000000000000000000 ) ) ;
#216 = CARTESIAN_POINT ( 'NONE',  ( -1.250000000000000000, 0.000000000000000000, 2.000000000000000000 ) ) ;
#217 = DIRECTION ( 'NONE',  ( -0.000000000000000000, -0.000000000000000000, -1.000000000000000000 ) ) ;
#218 = DIRECTION ( 'NONE',  ( 0.000000000000000000, 0.000000000000000000, 1.000000000000000000 ) ) ;
#219 = CARTESIAN_POINT ( 'NONE',  ( 0.000000000000000000, 0.000000000000000000, 125.0000000000000000 ) ) ;
#220 = DIRECTION ( 'NONE',  ( 1.000000000000000000, 0.000000000000000000, 0.000000000000000000 ) ) ;
#221 = CARTESIAN_POINT ( 'NONE',  ( 0.000000000000000000, 0.000000000000000000, 125.0000000000000000 ) ) ;
#222 = VERTEX_POINT ( 'NONE', #213 ) ;
#223 = PERSON_AND_ORGANIZATION_ROLE ( 'design_supplier' ) ;
#224 = AXIS2_PLACEMENT_3D ( 'NONE', #174, #116, #198 ) ;
#225 = DATE_TIME_ROLE ( 'creation_date' ) ;
#226 = ORIENTED_EDGE ( 'NONE', *, *, #209, .T. ) ;
#227 = DIRECTION ( 'NONE',  ( -0.000000000000000000, -0.000000000000000000, -1.000000000000000000 ) ) ;
#228 = COORDINATED_UNIVERSAL_TIME_OFFSET ( 1, 0, .AHEAD. ) ;
#229 = EDGE_LOOP ( 'NONE', ( #214, #226, #31, #27 ) ) ;
#230 = PRODUCT_DEFINITION_SHAPE ( 'NONE', 'NONE',  #83 ) ;
#231 = ORIENTED_EDGE ( 'NONE', *, *, #207, .F. ) ;
#232 = CARTESIAN_POINT ( 'NONE',  ( 0.000000000000000000, 0.000000000000000000, 2.000000000000000000 ) ) ;
#233 = LOCAL_TIME ( 18, 4, 54.00000000000000000, #8 ) ;
#234 = DIRECTION ( 'NONE',  ( -0.000000000000000000, -0.000000000000000000, -1.000000000000000000 ) ) ;
#235 = PRODUCT_RELATED_PRODUCT_CATEGORY ( 'detail', '', ( #54 ) ) ;
#236 =( GEOMETRIC_REPRESENTATION_CONTEXT ( 3 ) GLOBAL_UNCERTAINTY_ASSIGNED_CONTEXT ( ( #144 ) ) GLOBAL_UNIT_ASSIGNED_CONTEXT ( ( #97, #10, #44 ) ) REPRESENTATION_CONTEXT ( 'NONE', 'WORKASPACE' ) );
#237 = ADVANCED_FACE ( 'NONE', ( #80 ), #46, .T. ) ;
#238 = CC_DESIGN_APPROVAL ( #157, ( #22 ) ) ;
#239 = CC_DESIGN_PERSON_AND_ORGANIZATION_ASSIGNMENT ( #192, #29, ( #83 ) ) ;
#240 = AXIS2_PLACEMENT_3D ( 'NONE', #101, #139, #38 ) ;
#241 = ADVANCED_FACE ( 'NONE', ( #51 ), #194, .T. ) ;
#242 = ORIENTED_EDGE ( 'NONE', *, *, #74, .F. ) ;
#243 = DIRECTION ( 'NONE',  ( -0.000000000000000000, -0.000000000000000000, -1.000000000000000000 ) ) ;
#244 = ORGANIZATION ( 'NEURÈENÝ', 'NEURÈENÝ', '' ) ;
#245 = VERTEX_POINT ( 'NONE', #154 ) ;
#246 = APPROVAL ( #128, 'NEURÈENÝ' ) ;
#247 = ORIENTED_EDGE ( 'NONE', *, *, #176, .T. ) ;
#248 = CARTESIAN_POINT ( 'NONE',  ( 0.000000000000000000, 0.000000000000000000, 2.000000000000000000 ) ) ;
#249 = EDGE_CURVE ( 'NONE', #64, #145, #156, .T. ) ;
#250 = DATE_AND_TIME ( #133, #1 ) ;
#251 = CYLINDRICAL_SURFACE ( 'NONE', #86, 2.500000000000000000 ) ;
#252 = AXIS2_PLACEMENT_3D ( 'NONE', #152, #217, #35 ) ;
#253 = EDGE_CURVE ( 'NONE', #149, #48, #204, .T. ) ;
#254 = AXIS2_PLACEMENT_3D ( 'NONE', #115, #91, #169 ) ;
#255 = ADVANCED_FACE ( 'NONE', ( #191 ), #94, .T. ) ;
ENDSEC;
END-ISO-10303-21;
