ISO-10303-21;
HEADER;
FILE_DESCRIPTION (( 'STEP AP203' ),
    '1' );
FILE_NAME ('e61b.STEP',
    '2023-02-13T14:16:40',
    ( '' ),
    ( '' ),
    'SwSTEP 2.0',
    'SolidWorks 2019',
    '' );
FILE_SCHEMA (( 'CONFIG_CONTROL_DESIGN' ));
ENDSEC;

DATA;
#1 = DIRECTION ( 'NONE',  ( 0.000000000000000000, 0.000000000000000000, 1.000000000000000000 ) ) ;
#2 = VECTOR ( 'NONE', #191, 1000.000000000000000 ) ;
#3 = DIRECTION ( 'NONE',  ( 1.000000000000000000, 0.000000000000000000, 0.000000000000000000 ) ) ;
#4 = COORDINATED_UNIVERSAL_TIME_OFFSET ( 1, 0, .AHEAD. ) ;
#5 = PERSON ( 'NEURÈENÝ', 'NEURÈENÝ', 'NEURÈENÝ', ('NEURÈENÝ'), ('NEURÈENÝ'), ('NEURÈENÝ') ) ;
#6 = CIRCLE ( 'NONE', #180, 4.099999999999999645 ) ;
#7 = PERSON_AND_ORGANIZATION_ROLE ( 'classification_officer' ) ;
#8 = EDGE_CURVE ( 'NONE', #94, #188, #56, .T. ) ;
#9 = DATE_AND_TIME ( #29, #249 ) ;
#10 = CARTESIAN_POINT ( 'NONE',  ( 7.000000000000000000, 8.572527594031471218E-16, 6.500000000000000000 ) ) ;
#11 = SHAPE_DEFINITION_REPRESENTATION ( #85, #113 ) ;
#12 = EDGE_LOOP ( 'NONE', ( #223, #115 ) ) ;
#13 = COORDINATED_UNIVERSAL_TIME_OFFSET ( 1, 0, .AHEAD. ) ;
#14 = CYLINDRICAL_SURFACE ( 'NONE', #225, 4.099999999999999645 ) ;
#15 = PLANE ( 'NONE',  #149 ) ;
#16 = CARTESIAN_POINT ( 'NONE',  ( -7.000000000000000000, 0.000000000000000000, 0.000000000000000000 ) ) ;
#17 = DIRECTION ( 'NONE',  ( 0.000000000000000000, 0.000000000000000000, 1.000000000000000000 ) ) ;
#18 = APPLICATION_CONTEXT ( 'configuration controlled 3d designs of mechanical parts and assemblies' ) ;
#19 = DIRECTION ( 'NONE',  ( -0.000000000000000000, -0.000000000000000000, -1.000000000000000000 ) ) ;
#20 = EDGE_CURVE ( 'NONE', #52, #210, #33, .T. ) ;
#21 =( GEOMETRIC_REPRESENTATION_CONTEXT ( 3 ) GLOBAL_UNCERTAINTY_ASSIGNED_CONTEXT ( ( #170 ) ) GLOBAL_UNIT_ASSIGNED_CONTEXT ( ( #68, #181, #148 ) ) REPRESENTATION_CONTEXT ( 'NONE', 'WORKASPACE' ) );
#22 = FACE_BOUND ( 'NONE', #167, .T. ) ;
#23 = DIRECTION ( 'NONE',  ( 1.000000000000000000, 0.000000000000000000, 0.000000000000000000 ) ) ;
#24 = CC_DESIGN_DATE_AND_TIME_ASSIGNMENT ( #70, #45, ( #73 ) ) ;
#25 = AXIS2_PLACEMENT_3D ( 'NONE', #79, #38, #83 ) ;
#26 = DATE_AND_TIME ( #202, #47 ) ;
#27 = PRODUCT_RELATED_PRODUCT_CATEGORY ( 'detail', '', ( #190 ) ) ;
#28 = SECURITY_CLASSIFICATION_LEVEL ( 'unclassified' ) ;
#29 = CALENDAR_DATE ( 2023, 13, 2 ) ;
#30 = ORIENTED_EDGE ( 'NONE', *, *, #91, .T. ) ;
#31 = AXIS2_PLACEMENT_3D ( 'NONE', #199, #98, #121 ) ;
#32 = ORIENTED_EDGE ( 'NONE', *, *, #20, .T. ) ;
#33 = LINE ( 'NONE', #212, #2 ) ;
#34 = ORIENTED_EDGE ( 'NONE', *, *, #138, .F. ) ;
#35 = DESIGN_CONTEXT ( 'detailed design', #127, 'design' ) ;
#36 = APPROVAL ( #200, 'NEURÈENÝ' ) ;
#37 = CIRCLE ( 'NONE', #46, 7.000000000000000000 ) ;
#38 = DIRECTION ( 'NONE',  ( 0.000000000000000000, 0.000000000000000000, 1.000000000000000000 ) ) ;
#39 = DIRECTION ( 'NONE',  ( 0.000000000000000000, 0.000000000000000000, 1.000000000000000000 ) ) ;
#40 = DIRECTION ( 'NONE',  ( 1.000000000000000000, 0.000000000000000000, -0.000000000000000000 ) ) ;
#41 = ADVANCED_FACE ( 'NONE', ( #137 ), #15, .T. ) ;
#42 = CARTESIAN_POINT ( 'NONE',  ( 0.000000000000000000, 0.000000000000000000, 0.000000000000000000 ) ) ;
#43 = AXIS2_PLACEMENT_3D ( 'NONE', #240, #201, #67 ) ;
#44 = DIRECTION ( 'NONE',  ( -0.000000000000000000, -0.000000000000000000, -1.000000000000000000 ) ) ;
#45 = DATE_TIME_ROLE ( 'classification_date' ) ;
#46 = AXIS2_PLACEMENT_3D ( 'NONE', #123, #17, #237 ) ;
#47 = LOCAL_TIME ( 15, 16, 40.00000000000000000, #129 ) ;
#48 = DATE_AND_TIME ( #220, #253 ) ;
#49 = PERSON_AND_ORGANIZATION ( #5, #82 ) ;
#50 = PERSON_AND_ORGANIZATION_ROLE ( 'design_owner' ) ;
#51 = CIRCLE ( 'NONE', #233, 7.000000000000000000 ) ;
#52 = VERTEX_POINT ( 'NONE', #75 ) ;
#53 = ORIENTED_EDGE ( 'NONE', *, *, #117, .F. ) ;
#54 = CIRCLE ( 'NONE', #186, 4.099999999999999645 ) ;
#55 = ORIENTED_EDGE ( 'NONE', *, *, #91, .F. ) ;
#56 = LINE ( 'NONE', #10, #116 ) ;
#57 = ADVANCED_FACE ( 'NONE', ( #114 ), #14, .T. ) ;
#58 = CARTESIAN_POINT ( 'NONE',  ( -4.099999999999999645, 0.000000000000000000, 315.0000000000000000 ) ) ;
#59 = LOCAL_TIME ( 15, 16, 40.00000000000000000, #90 ) ;
#60 = CARTESIAN_POINT ( 'NONE',  ( -4.099999999999999645, 0.000000000000000000, 315.0000000000000000 ) ) ;
#61 = DIRECTION ( 'NONE',  ( 0.000000000000000000, 0.000000000000000000, 1.000000000000000000 ) ) ;
#62 = CARTESIAN_POINT ( 'NONE',  ( 0.000000000000000000, 0.000000000000000000, 6.500000000000000000 ) ) ;
#63 = APPROVAL_PERSON_ORGANIZATION ( #106, #185, #182 ) ;
#64 = DIRECTION ( 'NONE',  ( 0.000000000000000000, 0.000000000000000000, 1.000000000000000000 ) ) ;
#65 = ADVANCED_FACE ( 'NONE', ( #86 ), #159, .T. ) ;
#66 = PERSON_AND_ORGANIZATION ( #5, #82 ) ;
#67 = DIRECTION ( 'NONE',  ( 1.000000000000000000, 0.000000000000000000, 0.000000000000000000 ) ) ;
#68 =( LENGTH_UNIT ( ) NAMED_UNIT ( * ) SI_UNIT ( .MILLI., .METRE. ) );
#69 = ADVANCED_FACE ( 'NONE', ( #160 ), #179, .F. ) ;
#70 = DATE_AND_TIME ( #243, #59 ) ;
#71 = CC_DESIGN_PERSON_AND_ORGANIZATION_ASSIGNMENT ( #49, #50, ( #190 ) ) ;
#72 = ORIENTED_EDGE ( 'NONE', *, *, #203, .F. ) ;
#73 = SECURITY_CLASSIFICATION ( '', '', #28 ) ;
#74 = EDGE_LOOP ( 'NONE', ( #110, #34, #169, #93 ) ) ;
#75 = CARTESIAN_POINT ( 'NONE',  ( 4.099999999999999645, 5.021051876504146399E-16, 315.0000000000000000 ) ) ;
#76 = ORIENTED_EDGE ( 'NONE', *, *, #231, .F. ) ;
#77 = EDGE_CURVE ( 'NONE', #188, #187, #37, .T. ) ;
#78 = PRODUCT_DEFINITION_FORMATION_WITH_SPECIFIED_SOURCE ( 'LIBOVOLNÝ', '', #190, .NOT_KNOWN. ) ;
#79 = CARTESIAN_POINT ( 'NONE',  ( 0.000000000000000000, 0.000000000000000000, 6.500000000000000000 ) ) ;
#80 = AXIS2_PLACEMENT_3D ( 'NONE', #232, #61, #40 ) ;
#81 = CARTESIAN_POINT ( 'NONE',  ( 7.000000000000000000, 8.572527594031471218E-16, 6.500000000000000000 ) ) ;
#82 = ORGANIZATION ( 'NEURÈENÝ', 'NEURÈENÝ', '' ) ;
#83 = DIRECTION ( 'NONE',  ( 1.000000000000000000, 0.000000000000000000, 0.000000000000000000 ) ) ;
#84 = CYLINDRICAL_SURFACE ( 'NONE', #111, 4.099999999999999645 ) ;
#85 = PRODUCT_DEFINITION_SHAPE ( 'NONE', 'NONE',  #104 ) ;
#86 = FACE_OUTER_BOUND ( 'NONE', #134, .T. ) ;
#87 = CC_DESIGN_PERSON_AND_ORGANIZATION_ASSIGNMENT ( #239, #131, ( #104 ) ) ;
#88 = ADVANCED_FACE ( 'NONE', ( #22, #255 ), #101, .T. ) ;
#89 = CALENDAR_DATE ( 2023, 13, 2 ) ;
#90 = COORDINATED_UNIVERSAL_TIME_OFFSET ( 1, 0, .AHEAD. ) ;
#91 = EDGE_CURVE ( 'NONE', #52, #226, #54, .T. ) ;
#92 = DIRECTION ( 'NONE',  ( -0.000000000000000000, -0.000000000000000000, -1.000000000000000000 ) ) ;
#93 = ORIENTED_EDGE ( 'NONE', *, *, #117, .T. ) ;
#94 = VERTEX_POINT ( 'NONE', #81 ) ;
#95 = CARTESIAN_POINT ( 'NONE',  ( 0.000000000000000000, 0.000000000000000000, 315.0000000000000000 ) ) ;
#96 = EDGE_LOOP ( 'NONE', ( #55, #32, #229, #213 ) ) ;
#97 = CARTESIAN_POINT ( 'NONE',  ( 0.000000000000000000, 0.000000000000000000, 0.000000000000000000 ) ) ;
#98 = DIRECTION ( 'NONE',  ( -0.000000000000000000, -0.000000000000000000, -1.000000000000000000 ) ) ;
#99 = DIRECTION ( 'NONE',  ( -0.000000000000000000, -0.000000000000000000, -1.000000000000000000 ) ) ;
#100 = AXIS2_PLACEMENT_3D ( 'NONE', #156, #140, #158 ) ;
#101 = PLANE ( 'NONE',  #80 ) ;
#102 = DIRECTION ( 'NONE',  ( 1.000000000000000000, 0.000000000000000000, 0.000000000000000000 ) ) ;
#103 = APPROVAL_ROLE ( '' ) ;
#104 = PRODUCT_DEFINITION ( 'NEZNÁMÝ', '', #78, #35 ) ;
#105 = COORDINATED_UNIVERSAL_TIME_OFFSET ( 1, 0, .AHEAD. ) ;
#106 = PERSON_AND_ORGANIZATION ( #5, #82 ) ;
#107 = VECTOR ( 'NONE', #99, 1000.000000000000000 ) ;
#108 = ORIENTED_EDGE ( 'NONE', *, *, #157, .F. ) ;
#109 = APPROVAL_DATE_TIME ( #9, #36 ) ;
#110 = ORIENTED_EDGE ( 'NONE', *, *, #20, .F. ) ;
#111 = AXIS2_PLACEMENT_3D ( 'NONE', #216, #194, #214 ) ;
#112 = ORIENTED_EDGE ( 'NONE', *, *, #77, .T. ) ;
#113 = ADVANCED_BREP_SHAPE_REPRESENTATION ( 'e61b', ( #133, #43 ), #21 ) ;
#114 = FACE_OUTER_BOUND ( 'NONE', #74, .T. ) ;
#115 = ORIENTED_EDGE ( 'NONE', *, *, #77, .F. ) ;
#116 = VECTOR ( 'NONE', #92, 1000.000000000000000 ) ;
#117 = EDGE_CURVE ( 'NONE', #136, #210, #6, .T. ) ;
#118 = CYLINDRICAL_SURFACE ( 'NONE', #100, 7.000000000000000000 ) ;
#119 = LINE ( 'NONE', #58, #241 ) ;
#120 = LINE ( 'NONE', #196, #107 ) ;
#121 = DIRECTION ( 'NONE',  ( -1.000000000000000000, 0.000000000000000000, 0.000000000000000000 ) ) ;
#122 = CC_DESIGN_PERSON_AND_ORGANIZATION_ASSIGNMENT ( #205, #164, ( #78 ) ) ;
#123 = CARTESIAN_POINT ( 'NONE',  ( 0.000000000000000000, 0.000000000000000000, 0.000000000000000000 ) ) ;
#124 = PERSON_AND_ORGANIZATION ( #5, #82 ) ;
#125 = APPROVAL_STATUS ( 'not_yet_approved' ) ;
#126 = AXIS2_PLACEMENT_3D ( 'NONE', #97, #178, #197 ) ;
#127 = APPLICATION_CONTEXT ( 'configuration controlled 3d designs of mechanical parts and assemblies' ) ;
#128 = CIRCLE ( 'NONE', #238, 7.000000000000000000 ) ;
#129 = COORDINATED_UNIVERSAL_TIME_OFFSET ( 1, 0, .AHEAD. ) ;
#130 = APPROVAL_STATUS ( 'not_yet_approved' ) ;
#131 = PERSON_AND_ORGANIZATION_ROLE ( 'creator' ) ;
#132 = APPROVAL ( #130, 'NEURÈENÝ' ) ;
#133 = MANIFOLD_SOLID_BREP ( 'Pøidat vysunutím3', #192 ) ;
#134 = EDGE_LOOP ( 'NONE', ( #150, #250, #112, #76 ) ) ;
#135 = CIRCLE ( 'NONE', #25, 7.000000000000000000 ) ;
#136 = VERTEX_POINT ( 'NONE', #252 ) ;
#137 = FACE_OUTER_BOUND ( 'NONE', #172, .T. ) ;
#138 = EDGE_CURVE ( 'NONE', #226, #52, #176, .T. ) ;
#139 = ORIENTED_EDGE ( 'NONE', *, *, #231, .T. ) ;
#140 = DIRECTION ( 'NONE',  ( -0.000000000000000000, -0.000000000000000000, -1.000000000000000000 ) ) ;
#141 = DIRECTION ( 'NONE',  ( 0.000000000000000000, 0.000000000000000000, 1.000000000000000000 ) ) ;
#142 = FACE_OUTER_BOUND ( 'NONE', #96, .T. ) ;
#143 = CC_DESIGN_DATE_AND_TIME_ASSIGNMENT ( #26, #218, ( #104 ) ) ;
#144 = FACE_OUTER_BOUND ( 'NONE', #224, .T. ) ;
#145 = APPROVAL_PERSON_ORGANIZATION ( #124, #36, #103 ) ;
#146 = CARTESIAN_POINT ( 'NONE',  ( 0.000000000000000000, 0.000000000000000000, 6.500000000000000000 ) ) ;
#147 = APPLICATION_PROTOCOL_DEFINITION ( 'international standard', 'config_control_design', 1994, #127 ) ;
#148 =( NAMED_UNIT ( * ) SI_UNIT ( $, .STERADIAN. ) SOLID_ANGLE_UNIT ( ) );
#149 = AXIS2_PLACEMENT_3D ( 'NONE', #168, #245, #248 ) ;
#150 = ORIENTED_EDGE ( 'NONE', *, *, #227, .F. ) ;
#151 = EDGE_CURVE ( 'NONE', #226, #136, #119, .T. ) ;
#152 = ORIENTED_EDGE ( 'NONE', *, *, #244, .T. ) ;
#153 = LOCAL_TIME ( 15, 16, 40.00000000000000000, #4 ) ;
#154 = ORIENTED_EDGE ( 'NONE', *, *, #8, .F. ) ;
#155 = CARTESIAN_POINT ( 'NONE',  ( 0.000000000000000000, 0.000000000000000000, 6.500000000000000000 ) ) ;
#156 = CARTESIAN_POINT ( 'NONE',  ( 0.000000000000000000, 0.000000000000000000, 6.500000000000000000 ) ) ;
#157 = EDGE_CURVE ( 'NONE', #208, #94, #135, .T. ) ;
#158 = DIRECTION ( 'NONE',  ( -1.000000000000000000, 0.000000000000000000, 0.000000000000000000 ) ) ;
#159 = CYLINDRICAL_SURFACE ( 'NONE', #31, 7.000000000000000000 ) ;
#160 = FACE_OUTER_BOUND ( 'NONE', #12, .T. ) ;
#161 = ADVANCED_FACE ( 'NONE', ( #144 ), #118, .T. ) ;
#162 = APPROVAL_ROLE ( '' ) ;
#163 = PERSON_AND_ORGANIZATION ( #5, #82 ) ;
#164 = PERSON_AND_ORGANIZATION_ROLE ( 'creator' ) ;
#165 = CC_DESIGN_PERSON_AND_ORGANIZATION_ASSIGNMENT ( #163, #242, ( #78 ) ) ;
#166 = APPROVAL_DATE_TIME ( #219, #185 ) ;
#167 = EDGE_LOOP ( 'NONE', ( #53, #72 ) ) ;
#168 = CARTESIAN_POINT ( 'NONE',  ( 0.000000000000000000, 0.000000000000000000, 315.0000000000000000 ) ) ;
#169 = ORIENTED_EDGE ( 'NONE', *, *, #151, .T. ) ;
#170 = UNCERTAINTY_MEASURE_WITH_UNIT (LENGTH_MEASURE( 1.000000000000000082E-05 ), #68, 'distance_accuracy_value', 'NONE');
#171 = CC_DESIGN_APPROVAL ( #185, ( #78 ) ) ;
#172 = EDGE_LOOP ( 'NONE', ( #189, #30 ) ) ;
#173 = ADVANCED_FACE ( 'NONE', ( #142 ), #84, .T. ) ;
#174 = CARTESIAN_POINT ( 'NONE',  ( 7.000000000000000000, 8.572527594031471218E-16, 0.000000000000000000 ) ) ;
#175 = DIRECTION ( 'NONE',  ( 1.000000000000000000, 0.000000000000000000, 0.000000000000000000 ) ) ;
#176 = CIRCLE ( 'NONE', #207, 4.099999999999999645 ) ;
#177 = DIRECTION ( 'NONE',  ( 1.000000000000000000, 0.000000000000000000, 0.000000000000000000 ) ) ;
#178 = DIRECTION ( 'NONE',  ( 0.000000000000000000, 0.000000000000000000, 1.000000000000000000 ) ) ;
#179 = PLANE ( 'NONE',  #126 ) ;
#180 = AXIS2_PLACEMENT_3D ( 'NONE', #146, #235, #102 ) ;
#181 =( NAMED_UNIT ( * ) PLANE_ANGLE_UNIT ( ) SI_UNIT ( $, .RADIAN. ) );
#182 = APPROVAL_ROLE ( '' ) ;
#183 = PERSON_AND_ORGANIZATION ( #5, #82 ) ;
#184 = ORIENTED_EDGE ( 'NONE', *, *, #227, .T. ) ;
#185 = APPROVAL ( #125, 'NEURÈENÝ' ) ;
#186 = AXIS2_PLACEMENT_3D ( 'NONE', #251, #64, #23 ) ;
#187 = VERTEX_POINT ( 'NONE', #16 ) ;
#188 = VERTEX_POINT ( 'NONE', #174 ) ;
#189 = ORIENTED_EDGE ( 'NONE', *, *, #138, .T. ) ;
#190 = PRODUCT ( 'e61b', 'e61b', '', ( #222 ) ) ;
#191 = DIRECTION ( 'NONE',  ( -0.000000000000000000, -0.000000000000000000, -1.000000000000000000 ) ) ;
#192 = CLOSED_SHELL ( 'NONE', ( #173, #65, #161, #88, #69, #57, #41 ) ) ;
#193 = CC_DESIGN_SECURITY_CLASSIFICATION ( #73, ( #78 ) ) ;
#194 = DIRECTION ( 'NONE',  ( -0.000000000000000000, -0.000000000000000000, -1.000000000000000000 ) ) ;
#195 = DIRECTION ( 'NONE',  ( -1.000000000000000000, 0.000000000000000000, 0.000000000000000000 ) ) ;
#196 = CARTESIAN_POINT ( 'NONE',  ( -7.000000000000000000, 0.000000000000000000, 6.500000000000000000 ) ) ;
#197 = DIRECTION ( 'NONE',  ( 1.000000000000000000, 0.000000000000000000, -0.000000000000000000 ) ) ;
#198 = APPROVAL_PERSON_ORGANIZATION ( #66, #132, #162 ) ;
#199 = CARTESIAN_POINT ( 'NONE',  ( 0.000000000000000000, 0.000000000000000000, 6.500000000000000000 ) ) ;
#200 = APPROVAL_STATUS ( 'not_yet_approved' ) ;
#201 = DIRECTION ( 'NONE',  ( 0.000000000000000000, 0.000000000000000000, 1.000000000000000000 ) ) ;
#202 = CALENDAR_DATE ( 2023, 13, 2 ) ;
#203 = EDGE_CURVE ( 'NONE', #210, #136, #209, .T. ) ;
#204 = APPROVAL_DATE_TIME ( #48, #132 ) ;
#205 = PERSON_AND_ORGANIZATION ( #5, #82 ) ;
#206 = CC_DESIGN_APPROVAL ( #36, ( #73 ) ) ;
#207 = AXIS2_PLACEMENT_3D ( 'NONE', #236, #1, #175 ) ;
#208 = VERTEX_POINT ( 'NONE', #234 ) ;
#209 = CIRCLE ( 'NONE', #246, 4.099999999999999645 ) ;
#210 = VERTEX_POINT ( 'NONE', #215 ) ;
#211 = CC_DESIGN_PERSON_AND_ORGANIZATION_ASSIGNMENT ( #183, #7, ( #73 ) ) ;
#212 = CARTESIAN_POINT ( 'NONE',  ( 4.099999999999999645, 5.021051876504146399E-16, 315.0000000000000000 ) ) ;
#213 = ORIENTED_EDGE ( 'NONE', *, *, #151, .F. ) ;
#214 = DIRECTION ( 'NONE',  ( -1.000000000000000000, 0.000000000000000000, 0.000000000000000000 ) ) ;
#215 = CARTESIAN_POINT ( 'NONE',  ( 4.099999999999999645, 5.021051876504146399E-16, 6.500000000000000000 ) ) ;
#216 = CARTESIAN_POINT ( 'NONE',  ( 0.000000000000000000, 0.000000000000000000, 315.0000000000000000 ) ) ;
#217 = DIRECTION ( 'NONE',  ( 1.000000000000000000, 0.000000000000000000, 0.000000000000000000 ) ) ;
#218 = DATE_TIME_ROLE ( 'creation_date' ) ;
#219 = DATE_AND_TIME ( #89, #153 ) ;
#220 = CALENDAR_DATE ( 2023, 13, 2 ) ;
#221 = APPLICATION_PROTOCOL_DEFINITION ( 'international standard', 'config_control_design', 1994, #18 ) ;
#222 = MECHANICAL_CONTEXT ( 'NONE', #18, 'mechanical' ) ;
#223 = ORIENTED_EDGE ( 'NONE', *, *, #244, .F. ) ;
#224 = EDGE_LOOP ( 'NONE', ( #154, #108, #139, #152 ) ) ;
#225 = AXIS2_PLACEMENT_3D ( 'NONE', #95, #44, #195 ) ;
#226 = VERTEX_POINT ( 'NONE', #60 ) ;
#227 = EDGE_CURVE ( 'NONE', #94, #208, #51, .T. ) ;
#228 = CC_DESIGN_APPROVAL ( #132, ( #104 ) ) ;
#229 = ORIENTED_EDGE ( 'NONE', *, *, #203, .T. ) ;
#230 = EDGE_LOOP ( 'NONE', ( #247, #184 ) ) ;
#231 = EDGE_CURVE ( 'NONE', #208, #187, #120, .T. ) ;
#232 = CARTESIAN_POINT ( 'NONE',  ( 0.000000000000000000, 0.000000000000000000, 6.500000000000000000 ) ) ;
#233 = AXIS2_PLACEMENT_3D ( 'NONE', #155, #141, #217 ) ;
#234 = CARTESIAN_POINT ( 'NONE',  ( -7.000000000000000000, 0.000000000000000000, 6.500000000000000000 ) ) ;
#235 = DIRECTION ( 'NONE',  ( 0.000000000000000000, 0.000000000000000000, 1.000000000000000000 ) ) ;
#236 = CARTESIAN_POINT ( 'NONE',  ( 0.000000000000000000, 0.000000000000000000, 315.0000000000000000 ) ) ;
#237 = DIRECTION ( 'NONE',  ( 1.000000000000000000, 0.000000000000000000, 0.000000000000000000 ) ) ;
#238 = AXIS2_PLACEMENT_3D ( 'NONE', #42, #254, #3 ) ;
#239 = PERSON_AND_ORGANIZATION ( #5, #82 ) ;
#240 = CARTESIAN_POINT ( 'NONE',  ( 0.000000000000000000, 0.000000000000000000, 0.000000000000000000 ) ) ;
#241 = VECTOR ( 'NONE', #19, 1000.000000000000000 ) ;
#242 = PERSON_AND_ORGANIZATION_ROLE ( 'design_supplier' ) ;
#243 = CALENDAR_DATE ( 2023, 13, 2 ) ;
#244 = EDGE_CURVE ( 'NONE', #187, #188, #128, .T. ) ;
#245 = DIRECTION ( 'NONE',  ( 0.000000000000000000, 0.000000000000000000, 1.000000000000000000 ) ) ;
#246 = AXIS2_PLACEMENT_3D ( 'NONE', #62, #39, #177 ) ;
#247 = ORIENTED_EDGE ( 'NONE', *, *, #157, .T. ) ;
#248 = DIRECTION ( 'NONE',  ( 1.000000000000000000, 0.000000000000000000, -0.000000000000000000 ) ) ;
#249 = LOCAL_TIME ( 15, 16, 40.00000000000000000, #13 ) ;
#250 = ORIENTED_EDGE ( 'NONE', *, *, #8, .T. ) ;
#251 = CARTESIAN_POINT ( 'NONE',  ( 0.000000000000000000, 0.000000000000000000, 315.0000000000000000 ) ) ;
#252 = CARTESIAN_POINT ( 'NONE',  ( -4.099999999999999645, 0.000000000000000000, 6.500000000000000000 ) ) ;
#253 = LOCAL_TIME ( 15, 16, 40.00000000000000000, #105 ) ;
#254 = DIRECTION ( 'NONE',  ( 0.000000000000000000, 0.000000000000000000, 1.000000000000000000 ) ) ;
#255 = FACE_OUTER_BOUND ( 'NONE', #230, .T. ) ;
ENDSEC;
END-ISO-10303-21;
