ISO-10303-21;
HEADER;
FILE_DESCRIPTION (( 'STEP AP203' ),
    '1' );
FILE_NAME ('41d1.STEP',
    '2023-02-13T16:36:38',
    ( '' ),
    ( '' ),
    'SwSTEP 2.0',
    'SolidWorks 2019',
    '' );
FILE_SCHEMA (( 'CONFIG_CONTROL_DESIGN' ));
ENDSEC;

DATA;
#1 = CALENDAR_DATE ( 2023, 13, 2 ) ;
#2 = PERSON_AND_ORGANIZATION ( #246, #241 ) ;
#3 = CIRCLE ( 'NONE', #179, 2.000000000000000000 ) ;
#4 = CC_DESIGN_SECURITY_CLASSIFICATION ( #252, ( #56 ) ) ;
#5 = ORIENTED_EDGE ( 'NONE', *, *, #235, .F. ) ;
#6 = DATE_AND_TIME ( #173, #154 ) ;
#7 = AXIS2_PLACEMENT_3D ( 'NONE', #155, #242, #95 ) ;
#8 = CC_DESIGN_PERSON_AND_ORGANIZATION_ASSIGNMENT ( #142, #121, ( #152 ) ) ;
#9 = CARTESIAN_POINT ( 'NONE',  ( 0.000000000000000000, 0.000000000000000000, 315.0000000000000000 ) ) ;
#10 = DIRECTION ( 'NONE',  ( 0.000000000000000000, 0.000000000000000000, 1.000000000000000000 ) ) ;
#11 = DIRECTION ( 'NONE',  ( 0.000000000000000000, 0.000000000000000000, 1.000000000000000000 ) ) ;
#12 = DIRECTION ( 'NONE',  ( 1.000000000000000000, 0.000000000000000000, 0.000000000000000000 ) ) ;
#13 = VERTEX_POINT ( 'NONE', #117 ) ;
#14 = ADVANCED_FACE ( 'NONE', ( #250, #69 ), #254, .T. ) ;
#15 = CYLINDRICAL_SURFACE ( 'NONE', #175, 2.000000000000000000 ) ;
#16 = APPROVAL_STATUS ( 'not_yet_approved' ) ;
#17 = CC_DESIGN_APPROVAL ( #107, ( #152 ) ) ;
#18 = ORIENTED_EDGE ( 'NONE', *, *, #128, .F. ) ;
#19 = PERSON_AND_ORGANIZATION ( #246, #241 ) ;
#20 = APPROVAL_PERSON_ORGANIZATION ( #19, #107, #34 ) ;
#21 = DIRECTION ( 'NONE',  ( 1.000000000000000000, 0.000000000000000000, 0.000000000000000000 ) ) ;
#22 = PERSON_AND_ORGANIZATION ( #246, #241 ) ;
#23 = AXIS2_PLACEMENT_3D ( 'NONE', #102, #188, #143 ) ;
#24 = COORDINATED_UNIVERSAL_TIME_OFFSET ( 1, 0, .AHEAD. ) ;
#25 = DATE_AND_TIME ( #221, #63 ) ;
#26 = ADVANCED_FACE ( 'NONE', ( #185 ), #15, .T. ) ;
#27 = CC_DESIGN_PERSON_AND_ORGANIZATION_ASSIGNMENT ( #190, #101, ( #181 ) ) ;
#28 = ORIENTED_EDGE ( 'NONE', *, *, #31, .F. ) ;
#29 = CARTESIAN_POINT ( 'NONE',  ( -2.000000000000000000, 0.000000000000000000, 315.0000000000000000 ) ) ;
#30 = FACE_OUTER_BOUND ( 'NONE', #50, .T. ) ;
#31 = EDGE_CURVE ( 'NONE', #13, #208, #216, .T. ) ;
#32 = DIRECTION ( 'NONE',  ( 1.000000000000000000, 0.000000000000000000, 0.000000000000000000 ) ) ;
#33 = DIRECTION ( 'NONE',  ( -0.000000000000000000, -0.000000000000000000, -1.000000000000000000 ) ) ;
#34 = APPROVAL_ROLE ( '' ) ;
#35 = VECTOR ( 'NONE', #112, 1000.000000000000000 ) ;
#36 = DESIGN_CONTEXT ( 'detailed design', #68, 'design' ) ;
#37 = CYLINDRICAL_SURFACE ( 'NONE', #145, 4.000000000000000000 ) ;
#38 = DATE_AND_TIME ( #193, #47 ) ;
#39 = CLOSED_SHELL ( 'NONE', ( #26, #48, #140, #14, #189, #105, #199 ) ) ;
#40 = APPROVAL_STATUS ( 'not_yet_approved' ) ;
#41 = MANIFOLD_SOLID_BREP ( 'Pøidat vysunutím3', #39 ) ;
#42 = ORIENTED_EDGE ( 'NONE', *, *, #226, .F. ) ;
#43 = CIRCLE ( 'NONE', #7, 4.000000000000000000 ) ;
#44 = PRODUCT_RELATED_PRODUCT_CATEGORY ( 'detail', '', ( #181 ) ) ;
#45 = CARTESIAN_POINT ( 'NONE',  ( 2.000000000000000000, 2.449293598294706414E-16, 315.0000000000000000 ) ) ;
#46 = AXIS2_PLACEMENT_3D ( 'NONE', #207, #160, #222 ) ;
#47 = LOCAL_TIME ( 17, 36, 38.00000000000000000, #210 ) ;
#48 = ADVANCED_FACE ( 'NONE', ( #168 ), #37, .T. ) ;
#49 = EDGE_CURVE ( 'NONE', #123, #218, #58, .T. ) ;
#50 = EDGE_LOOP ( 'NONE', ( #146, #120 ) ) ;
#51 = DIRECTION ( 'NONE',  ( 1.000000000000000000, 0.000000000000000000, -0.000000000000000000 ) ) ;
#52 = CC_DESIGN_APPROVAL ( #255, ( #252 ) ) ;
#53 = VERTEX_POINT ( 'NONE', #236 ) ;
#54 = ORIENTED_EDGE ( 'NONE', *, *, #111, .T. ) ;
#55 = CIRCLE ( 'NONE', #231, 2.000000000000000000 ) ;
#56 = PRODUCT_DEFINITION_FORMATION_WITH_SPECIFIED_SOURCE ( 'LIBOVOLNÝ', '', #181, .NOT_KNOWN. ) ;
#57 =( NAMED_UNIT ( * ) SI_UNIT ( $, .STERADIAN. ) SOLID_ANGLE_UNIT ( ) );
#58 = LINE ( 'NONE', #191, #251 ) ;
#59 = EDGE_CURVE ( 'NONE', #123, #53, #135, .T. ) ;
#60 = APPROVAL_ROLE ( '' ) ;
#61 = DIRECTION ( 'NONE',  ( -0.000000000000000000, -0.000000000000000000, -1.000000000000000000 ) ) ;
#62 = AXIS2_PLACEMENT_3D ( 'NONE', #67, #139, #51 ) ;
#63 = LOCAL_TIME ( 17, 36, 38.00000000000000000, #130 ) ;
#64 = DIRECTION ( 'NONE',  ( 1.000000000000000000, 0.000000000000000000, 0.000000000000000000 ) ) ;
#65 = FACE_OUTER_BOUND ( 'NONE', #198, .T. ) ;
#66 = EDGE_LOOP ( 'NONE', ( #227, #28, #90, #220 ) ) ;
#67 = CARTESIAN_POINT ( 'NONE',  ( 0.000000000000000000, 0.000000000000000000, 0.000000000000000000 ) ) ;
#68 = APPLICATION_CONTEXT ( 'configuration controlled 3d designs of mechanical parts and assemblies' ) ;
#69 = FACE_OUTER_BOUND ( 'NONE', #71, .T. ) ;
#70 = AXIS2_PLACEMENT_3D ( 'NONE', #225, #10, #81 ) ;
#71 = EDGE_LOOP ( 'NONE', ( #249, #247 ) ) ;
#72 = APPROVAL_DATE_TIME ( #253, #107 ) ;
#73 = ORIENTED_EDGE ( 'NONE', *, *, #97, .F. ) ;
#74 = AXIS2_PLACEMENT_3D ( 'NONE', #156, #223, #243 ) ;
#75 = CC_DESIGN_PERSON_AND_ORGANIZATION_ASSIGNMENT ( #129, #217, ( #56 ) ) ;
#76 = DATE_TIME_ROLE ( 'classification_date' ) ;
#77 = COORDINATED_UNIVERSAL_TIME_OFFSET ( 1, 0, .AHEAD. ) ;
#78 = AXIS2_PLACEMENT_3D ( 'NONE', #108, #192, #21 ) ;
#79 = CIRCLE ( 'NONE', #70, 2.000000000000000000 ) ;
#80 = DIRECTION ( 'NONE',  ( -0.000000000000000000, -0.000000000000000000, -1.000000000000000000 ) ) ;
#81 = DIRECTION ( 'NONE',  ( 1.000000000000000000, 0.000000000000000000, 0.000000000000000000 ) ) ;
#82 = DIRECTION ( 'NONE',  ( 1.000000000000000000, 0.000000000000000000, 0.000000000000000000 ) ) ;
#83 = CARTESIAN_POINT ( 'NONE',  ( -4.000000000000000000, 0.000000000000000000, 4.000000000000000000 ) ) ;
#84 = APPLICATION_CONTEXT ( 'configuration controlled 3d designs of mechanical parts and assemblies' ) ;
#85 = CC_DESIGN_PERSON_AND_ORGANIZATION_ASSIGNMENT ( #219, #150, ( #252 ) ) ;
#86 = FACE_OUTER_BOUND ( 'NONE', #202, .T. ) ;
#87 = VERTEX_POINT ( 'NONE', #170 ) ;
#88 = COORDINATED_UNIVERSAL_TIME_OFFSET ( 1, 0, .AHEAD. ) ;
#89 = CARTESIAN_POINT ( 'NONE',  ( 0.000000000000000000, 0.000000000000000000, 0.000000000000000000 ) ) ;
#90 = ORIENTED_EDGE ( 'NONE', *, *, #97, .T. ) ;
#91 = CC_DESIGN_DATE_AND_TIME_ASSIGNMENT ( #6, #76, ( #252 ) ) ;
#92 = DATE_TIME_ROLE ( 'creation_date' ) ;
#93 = DIRECTION ( 'NONE',  ( -0.000000000000000000, -0.000000000000000000, -1.000000000000000000 ) ) ;
#94 = CYLINDRICAL_SURFACE ( 'NONE', #229, 2.000000000000000000 ) ;
#95 = DIRECTION ( 'NONE',  ( 1.000000000000000000, 0.000000000000000000, 0.000000000000000000 ) ) ;
#96 = CARTESIAN_POINT ( 'NONE',  ( 0.000000000000000000, 0.000000000000000000, 0.000000000000000000 ) ) ;
#97 = EDGE_CURVE ( 'NONE', #13, #206, #214, .T. ) ;
#98 = LINE ( 'NONE', #244, #35 ) ;
#99 = VERTEX_POINT ( 'NONE', #133 ) ;
#100 = ORIENTED_EDGE ( 'NONE', *, *, #111, .F. ) ;
#101 = PERSON_AND_ORGANIZATION_ROLE ( 'design_owner' ) ;
#102 = CARTESIAN_POINT ( 'NONE',  ( 0.000000000000000000, 0.000000000000000000, 315.0000000000000000 ) ) ;
#103 = DIRECTION ( 'NONE',  ( 1.000000000000000000, 0.000000000000000000, -0.000000000000000000 ) ) ;
#104 =( NAMED_UNIT ( * ) PLANE_ANGLE_UNIT ( ) SI_UNIT ( $, .RADIAN. ) );
#105 = ADVANCED_FACE ( 'NONE', ( #178 ), #94, .T. ) ;
#106 = DIRECTION ( 'NONE',  ( 0.000000000000000000, 0.000000000000000000, 1.000000000000000000 ) ) ;
#107 = APPROVAL ( #16, 'NEURÈENÝ' ) ;
#108 = CARTESIAN_POINT ( 'NONE',  ( 0.000000000000000000, 0.000000000000000000, 4.000000000000000000 ) ) ;
#109 = AXIS2_PLACEMENT_3D ( 'NONE', #96, #137, #64 ) ;
#110 = EDGE_LOOP ( 'NONE', ( #167, #54, #182, #209 ) ) ;
#111 = EDGE_CURVE ( 'NONE', #53, #99, #248, .T. ) ;
#112 = DIRECTION ( 'NONE',  ( -0.000000000000000000, -0.000000000000000000, -1.000000000000000000 ) ) ;
#113 = AXIS2_PLACEMENT_3D ( 'NONE', #177, #61, #228 ) ;
#114 = CIRCLE ( 'NONE', #74, 4.000000000000000000 ) ;
#115 = PLANE ( 'NONE',  #62 ) ;
#116 = CYLINDRICAL_SURFACE ( 'NONE', #113, 4.000000000000000000 ) ;
#117 = CARTESIAN_POINT ( 'NONE',  ( -2.000000000000000000, 0.000000000000000000, 315.0000000000000000 ) ) ;
#118 = PLANE ( 'NONE',  #46 ) ;
#119 = DIRECTION ( 'NONE',  ( 0.000000000000000000, 0.000000000000000000, 1.000000000000000000 ) ) ;
#120 = ORIENTED_EDGE ( 'NONE', *, *, #163, .T. ) ;
#121 = PERSON_AND_ORGANIZATION_ROLE ( 'creator' ) ;
#122 = AXIS2_PLACEMENT_3D ( 'NONE', #230, #119, #103 ) ;
#123 = VERTEX_POINT ( 'NONE', #83 ) ;
#124 = APPROVAL_PERSON_ORGANIZATION ( #2, #184, #197 ) ;
#125 = CC_DESIGN_DATE_AND_TIME_ASSIGNMENT ( #38, #92, ( #152 ) ) ;
#126 = UNCERTAINTY_MEASURE_WITH_UNIT (LENGTH_MEASURE( 1.000000000000000082E-05 ), #213, 'distance_accuracy_value', 'NONE');
#127 = DIRECTION ( 'NONE',  ( -0.000000000000000000, -0.000000000000000000, -1.000000000000000000 ) ) ;
#128 = EDGE_CURVE ( 'NONE', #87, #206, #55, .T. ) ;
#129 = PERSON_AND_ORGANIZATION ( #246, #241 ) ;
#130 = COORDINATED_UNIVERSAL_TIME_OFFSET ( 1, 0, .AHEAD. ) ;
#131 = EDGE_CURVE ( 'NONE', #53, #123, #43, .T. ) ;
#132 = CC_DESIGN_PERSON_AND_ORGANIZATION_ASSIGNMENT ( #22, #174, ( #56 ) ) ;
#133 = CARTESIAN_POINT ( 'NONE',  ( 4.000000000000000000, 4.898587196589412829E-16, 0.000000000000000000 ) ) ;
#134 = CARTESIAN_POINT ( 'NONE',  ( 0.000000000000000000, 0.000000000000000000, 4.000000000000000000 ) ) ;
#135 = CIRCLE ( 'NONE', #78, 4.000000000000000000 ) ;
#136 = ORIENTED_EDGE ( 'NONE', *, *, #211, .T. ) ;
#137 = DIRECTION ( 'NONE',  ( 0.000000000000000000, 0.000000000000000000, 1.000000000000000000 ) ) ;
#138 = ORIENTED_EDGE ( 'NONE', *, *, #147, .T. ) ;
#139 = DIRECTION ( 'NONE',  ( 0.000000000000000000, 0.000000000000000000, 1.000000000000000000 ) ) ;
#140 = ADVANCED_FACE ( 'NONE', ( #65 ), #116, .T. ) ;
#141 = ORIENTED_EDGE ( 'NONE', *, *, #163, .F. ) ;
#142 = PERSON_AND_ORGANIZATION ( #246, #241 ) ;
#143 = DIRECTION ( 'NONE',  ( 1.000000000000000000, 0.000000000000000000, 0.000000000000000000 ) ) ;
#144 = MECHANICAL_CONTEXT ( 'NONE', #84, 'mechanical' ) ;
#145 = AXIS2_PLACEMENT_3D ( 'NONE', #234, #127, #148 ) ;
#146 = ORIENTED_EDGE ( 'NONE', *, *, #31, .T. ) ;
#147 = EDGE_CURVE ( 'NONE', #218, #99, #237, .T. ) ;
#148 = DIRECTION ( 'NONE',  ( -1.000000000000000000, 0.000000000000000000, 0.000000000000000000 ) ) ;
#149 = APPROVAL_PERSON_ORGANIZATION ( #151, #255, #60 ) ;
#150 = PERSON_AND_ORGANIZATION_ROLE ( 'classification_officer' ) ;
#151 = PERSON_AND_ORGANIZATION ( #246, #241 ) ;
#152 = PRODUCT_DEFINITION ( 'NEZNÁMÝ', '', #56, #36 ) ;
#153 = APPROVAL_DATE_TIME ( #171, #184 ) ;
#154 = LOCAL_TIME ( 17, 36, 38.00000000000000000, #24 ) ;
#155 = CARTESIAN_POINT ( 'NONE',  ( 0.000000000000000000, 0.000000000000000000, 4.000000000000000000 ) ) ;
#156 = CARTESIAN_POINT ( 'NONE',  ( 0.000000000000000000, 0.000000000000000000, 0.000000000000000000 ) ) ;
#157 = CARTESIAN_POINT ( 'NONE',  ( 0.000000000000000000, 0.000000000000000000, 315.0000000000000000 ) ) ;
#158 = VECTOR ( 'NONE', #80, 1000.000000000000000 ) ;
#159 = EDGE_LOOP ( 'NONE', ( #141, #136, #172, #73 ) ) ;
#160 = DIRECTION ( 'NONE',  ( 0.000000000000000000, 0.000000000000000000, 1.000000000000000000 ) ) ;
#161 = ORIENTED_EDGE ( 'NONE', *, *, #147, .F. ) ;
#162 = DIRECTION ( 'NONE',  ( -0.000000000000000000, -0.000000000000000000, -1.000000000000000000 ) ) ;
#163 = EDGE_CURVE ( 'NONE', #208, #13, #3, .T. ) ;
#164 = ORIENTED_EDGE ( 'NONE', *, *, #49, .T. ) ;
#165 = DIRECTION ( 'NONE',  ( -1.000000000000000000, 0.000000000000000000, 0.000000000000000000 ) ) ;
#166 = CALENDAR_DATE ( 2023, 13, 2 ) ;
#167 = ORIENTED_EDGE ( 'NONE', *, *, #131, .F. ) ;
#168 = FACE_OUTER_BOUND ( 'NONE', #110, .T. ) ;
#169 = DIRECTION ( 'NONE',  ( -0.000000000000000000, -0.000000000000000000, -1.000000000000000000 ) ) ;
#170 = CARTESIAN_POINT ( 'NONE',  ( 2.000000000000000000, 2.449293598294706414E-16, 4.000000000000000000 ) ) ;
#171 = DATE_AND_TIME ( #1, #232 ) ;
#172 = ORIENTED_EDGE ( 'NONE', *, *, #128, .T. ) ;
#173 = CALENDAR_DATE ( 2023, 13, 2 ) ;
#174 = PERSON_AND_ORGANIZATION_ROLE ( 'design_supplier' ) ;
#175 = AXIS2_PLACEMENT_3D ( 'NONE', #212, #33, #165 ) ;
#176 = CARTESIAN_POINT ( 'NONE',  ( -2.000000000000000000, 0.000000000000000000, 4.000000000000000000 ) ) ;
#177 = CARTESIAN_POINT ( 'NONE',  ( 0.000000000000000000, 0.000000000000000000, 4.000000000000000000 ) ) ;
#178 = FACE_OUTER_BOUND ( 'NONE', #66, .T. ) ;
#179 = AXIS2_PLACEMENT_3D ( 'NONE', #157, #11, #82 ) ;
#180 = CC_DESIGN_APPROVAL ( #184, ( #56 ) ) ;
#181 = PRODUCT ( '41d1', '41d1', '', ( #144 ) ) ;
#182 = ORIENTED_EDGE ( 'NONE', *, *, #235, .T. ) ;
#183 = EDGE_LOOP ( 'NONE', ( #42, #18 ) ) ;
#184 = APPROVAL ( #40, 'NEURÈENÝ' ) ;
#185 = FACE_OUTER_BOUND ( 'NONE', #159, .T. ) ;
#186 = APPLICATION_PROTOCOL_DEFINITION ( 'international standard', 'config_control_design', 1994, #68 ) ;
#187 = ADVANCED_BREP_SHAPE_REPRESENTATION ( '41d1', ( #41, #196 ), #238 ) ;
#188 = DIRECTION ( 'NONE',  ( 0.000000000000000000, 0.000000000000000000, 1.000000000000000000 ) ) ;
#189 = ADVANCED_FACE ( 'NONE', ( #86 ), #115, .F. ) ;
#190 = PERSON_AND_ORGANIZATION ( #246, #241 ) ;
#191 = CARTESIAN_POINT ( 'NONE',  ( -4.000000000000000000, 0.000000000000000000, 4.000000000000000000 ) ) ;
#192 = DIRECTION ( 'NONE',  ( 0.000000000000000000, 0.000000000000000000, 1.000000000000000000 ) ) ;
#193 = CALENDAR_DATE ( 2023, 13, 2 ) ;
#194 = SECURITY_CLASSIFICATION_LEVEL ( 'unclassified' ) ;
#195 = VECTOR ( 'NONE', #162, 1000.000000000000000 ) ;
#196 = AXIS2_PLACEMENT_3D ( 'NONE', #89, #106, #32 ) ;
#197 = APPROVAL_ROLE ( '' ) ;
#198 = EDGE_LOOP ( 'NONE', ( #100, #233, #164, #138 ) ) ;
#199 = ADVANCED_FACE ( 'NONE', ( #30 ), #118, .T. ) ;
#200 = APPROVAL_DATE_TIME ( #25, #255 ) ;
#201 = CARTESIAN_POINT ( 'NONE',  ( -4.000000000000000000, 0.000000000000000000, 0.000000000000000000 ) ) ;
#202 = EDGE_LOOP ( 'NONE', ( #161, #5 ) ) ;
#203 = CARTESIAN_POINT ( 'NONE',  ( 4.000000000000000000, 4.898587196589412829E-16, 4.000000000000000000 ) ) ;
#204 = PRODUCT_DEFINITION_SHAPE ( 'NONE', 'NONE',  #152 ) ;
#205 = DIRECTION ( 'NONE',  ( -1.000000000000000000, 0.000000000000000000, 0.000000000000000000 ) ) ;
#206 = VERTEX_POINT ( 'NONE', #176 ) ;
#207 = CARTESIAN_POINT ( 'NONE',  ( 0.000000000000000000, 0.000000000000000000, 315.0000000000000000 ) ) ;
#208 = VERTEX_POINT ( 'NONE', #45 ) ;
#209 = ORIENTED_EDGE ( 'NONE', *, *, #49, .F. ) ;
#210 = COORDINATED_UNIVERSAL_TIME_OFFSET ( 1, 0, .AHEAD. ) ;
#211 = EDGE_CURVE ( 'NONE', #208, #87, #98, .T. ) ;
#212 = CARTESIAN_POINT ( 'NONE',  ( 0.000000000000000000, 0.000000000000000000, 315.0000000000000000 ) ) ;
#213 =( LENGTH_UNIT ( ) NAMED_UNIT ( * ) SI_UNIT ( .MILLI., .METRE. ) );
#214 = LINE ( 'NONE', #29, #195 ) ;
#215 = APPLICATION_PROTOCOL_DEFINITION ( 'international standard', 'config_control_design', 1994, #84 ) ;
#216 = CIRCLE ( 'NONE', #23, 2.000000000000000000 ) ;
#217 = PERSON_AND_ORGANIZATION_ROLE ( 'creator' ) ;
#218 = VERTEX_POINT ( 'NONE', #201 ) ;
#219 = PERSON_AND_ORGANIZATION ( #246, #241 ) ;
#220 = ORIENTED_EDGE ( 'NONE', *, *, #226, .T. ) ;
#221 = CALENDAR_DATE ( 2023, 13, 2 ) ;
#222 = DIRECTION ( 'NONE',  ( 1.000000000000000000, 0.000000000000000000, -0.000000000000000000 ) ) ;
#223 = DIRECTION ( 'NONE',  ( 0.000000000000000000, 0.000000000000000000, 1.000000000000000000 ) ) ;
#224 = DIRECTION ( 'NONE',  ( 0.000000000000000000, 0.000000000000000000, 1.000000000000000000 ) ) ;
#225 = CARTESIAN_POINT ( 'NONE',  ( 0.000000000000000000, 0.000000000000000000, 4.000000000000000000 ) ) ;
#226 = EDGE_CURVE ( 'NONE', #206, #87, #79, .T. ) ;
#227 = ORIENTED_EDGE ( 'NONE', *, *, #211, .F. ) ;
#228 = DIRECTION ( 'NONE',  ( -1.000000000000000000, 0.000000000000000000, 0.000000000000000000 ) ) ;
#229 = AXIS2_PLACEMENT_3D ( 'NONE', #9, #93, #205 ) ;
#230 = CARTESIAN_POINT ( 'NONE',  ( 0.000000000000000000, 0.000000000000000000, 4.000000000000000000 ) ) ;
#231 = AXIS2_PLACEMENT_3D ( 'NONE', #134, #224, #12 ) ;
#232 = LOCAL_TIME ( 17, 36, 38.00000000000000000, #77 ) ;
#233 = ORIENTED_EDGE ( 'NONE', *, *, #59, .F. ) ;
#234 = CARTESIAN_POINT ( 'NONE',  ( 0.000000000000000000, 0.000000000000000000, 4.000000000000000000 ) ) ;
#235 = EDGE_CURVE ( 'NONE', #99, #218, #114, .T. ) ;
#236 = CARTESIAN_POINT ( 'NONE',  ( 4.000000000000000000, 4.898587196589412829E-16, 4.000000000000000000 ) ) ;
#237 = CIRCLE ( 'NONE', #109, 4.000000000000000000 ) ;
#238 =( GEOMETRIC_REPRESENTATION_CONTEXT ( 3 ) GLOBAL_UNCERTAINTY_ASSIGNED_CONTEXT ( ( #126 ) ) GLOBAL_UNIT_ASSIGNED_CONTEXT ( ( #213, #104, #57 ) ) REPRESENTATION_CONTEXT ( 'NONE', 'WORKASPACE' ) );
#239 = APPROVAL_STATUS ( 'not_yet_approved' ) ;
#240 = SHAPE_DEFINITION_REPRESENTATION ( #204, #187 ) ;
#241 = ORGANIZATION ( 'NEURÈENÝ', 'NEURÈENÝ', '' ) ;
#242 = DIRECTION ( 'NONE',  ( 0.000000000000000000, 0.000000000000000000, 1.000000000000000000 ) ) ;
#243 = DIRECTION ( 'NONE',  ( 1.000000000000000000, 0.000000000000000000, 0.000000000000000000 ) ) ;
#244 = CARTESIAN_POINT ( 'NONE',  ( 2.000000000000000000, 2.449293598294706414E-16, 315.0000000000000000 ) ) ;
#245 = LOCAL_TIME ( 17, 36, 38.00000000000000000, #88 ) ;
#246 = PERSON ( 'NEURÈENÝ', 'NEURÈENÝ', 'NEURÈENÝ', ('NEURÈENÝ'), ('NEURÈENÝ'), ('NEURÈENÝ') ) ;
#247 = ORIENTED_EDGE ( 'NONE', *, *, #131, .T. ) ;
#248 = LINE ( 'NONE', #203, #158 ) ;
#249 = ORIENTED_EDGE ( 'NONE', *, *, #59, .T. ) ;
#250 = FACE_BOUND ( 'NONE', #183, .T. ) ;
#251 = VECTOR ( 'NONE', #169, 1000.000000000000000 ) ;
#252 = SECURITY_CLASSIFICATION ( '', '', #194 ) ;
#253 = DATE_AND_TIME ( #166, #245 ) ;
#254 = PLANE ( 'NONE',  #122 ) ;
#255 = APPROVAL ( #239, 'NEURÈENÝ' ) ;
ENDSEC;
END-ISO-10303-21;
