ISO-10303-21;
HEADER;
FILE_DESCRIPTION (( 'STEP AP203' ),
    '1' );
FILE_NAME ('66bf.STEP',
    '2023-02-13T12:20:56',
    ( '' ),
    ( '' ),
    'SwSTEP 2.0',
    'SolidWorks 2019',
    '' );
FILE_SCHEMA (( 'CONFIG_CONTROL_DESIGN' ));
ENDSEC;

DATA;
#1 = DIRECTION ( 'NONE',  ( 1.000000000000000000, 0.000000000000000000, 0.000000000000000000 ) ) ;
#2 = DATE_TIME_ROLE ( 'classification_date' ) ;
#3 = CC_DESIGN_SECURITY_CLASSIFICATION ( #136, ( #64 ) ) ;
#4 = APPROVAL_STATUS ( 'not_yet_approved' ) ;
#5 = MANIFOLD_SOLID_BREP ( 'Pøidat vysunutím3', #28 ) ;
#6 = AXIS2_PLACEMENT_3D ( 'NONE', #210, #247, #87 ) ;
#7 = EDGE_CURVE ( 'NONE', #91, #130, #127, .T. ) ;
#8 = FACE_OUTER_BOUND ( 'NONE', #132, .T. ) ;
#9 = CARTESIAN_POINT ( 'NONE',  ( 0.000000000000000000, 0.000000000000000000, 100.0000000000000000 ) ) ;
#10 = CARTESIAN_POINT ( 'NONE',  ( -9.000000000000000000, 0.000000000000000000, 6.500000000000000000 ) ) ;
#11 = DIRECTION ( 'NONE',  ( 1.000000000000000000, 0.000000000000000000, -0.000000000000000000 ) ) ;
#12 = DIRECTION ( 'NONE',  ( 1.000000000000000000, 0.000000000000000000, 0.000000000000000000 ) ) ;
#13 = ORIENTED_EDGE ( 'NONE', *, *, #7, .T. ) ;
#14 = APPLICATION_CONTEXT ( 'configuration controlled 3d designs of mechanical parts and assemblies' ) ;
#15 = CARTESIAN_POINT ( 'NONE',  ( 9.000000000000000000, 1.102182119232617517E-15, 0.000000000000000000 ) ) ;
#16 = CC_DESIGN_DATE_AND_TIME_ASSIGNMENT ( #21, #174, ( #26 ) ) ;
#17 = AXIS2_PLACEMENT_3D ( 'NONE', #225, #107, #190 ) ;
#18 = VERTEX_POINT ( 'NONE', #123 ) ;
#19 = APPROVAL_STATUS ( 'not_yet_approved' ) ;
#20 = PRODUCT_DEFINITION_SHAPE ( 'NONE', 'NONE',  #26 ) ;
#21 = DATE_AND_TIME ( #43, #186 ) ;
#22 = ORIENTED_EDGE ( 'NONE', *, *, #47, .T. ) ;
#23 = PERSON_AND_ORGANIZATION ( #192, #194 ) ;
#24 = DIRECTION ( 'NONE',  ( 0.000000000000000000, 0.000000000000000000, 1.000000000000000000 ) ) ;
#25 = DIRECTION ( 'NONE',  ( -0.000000000000000000, -0.000000000000000000, -1.000000000000000000 ) ) ;
#26 = PRODUCT_DEFINITION ( 'NEZNÁMÝ', '', #64, #191 ) ;
#27 = ORIENTED_EDGE ( 'NONE', *, *, #229, .F. ) ;
#28 = CLOSED_SHELL ( 'NONE', ( #109, #90, #197, #189, #152, #29, #180 ) ) ;
#29 = ADVANCED_FACE ( 'NONE', ( #220 ), #205, .T. ) ;
#30 = AXIS2_PLACEMENT_3D ( 'NONE', #118, #24, #82 ) ;
#31 = DIRECTION ( 'NONE',  ( 0.000000000000000000, 0.000000000000000000, 1.000000000000000000 ) ) ;
#32 = LINE ( 'NONE', #10, #58 ) ;
#33 = VECTOR ( 'NONE', #204, 1000.000000000000000 ) ;
#34 =( NAMED_UNIT ( * ) SI_UNIT ( $, .STERADIAN. ) SOLID_ANGLE_UNIT ( ) );
#35 = MECHANICAL_CONTEXT ( 'NONE', #246, 'mechanical' ) ;
#36 = EDGE_CURVE ( 'NONE', #193, #251, #138, .T. ) ;
#37 = PERSON_AND_ORGANIZATION ( #192, #194 ) ;
#38 = DIRECTION ( 'NONE',  ( 0.000000000000000000, 0.000000000000000000, 1.000000000000000000 ) ) ;
#39 = VECTOR ( 'NONE', #73, 1000.000000000000000 ) ;
#40 = ORIENTED_EDGE ( 'NONE', *, *, #229, .T. ) ;
#41 = EDGE_CURVE ( 'NONE', #130, #91, #129, .T. ) ;
#42 = APPROVAL_ROLE ( '' ) ;
#43 = CALENDAR_DATE ( 2023, 13, 2 ) ;
#44 = EDGE_LOOP ( 'NONE', ( #213, #172, #40, #13 ) ) ;
#45 = CIRCLE ( 'NONE', #141, 5.500000000000000000 ) ;
#46 = CARTESIAN_POINT ( 'NONE',  ( 0.000000000000000000, 0.000000000000000000, 100.0000000000000000 ) ) ;
#47 = EDGE_CURVE ( 'NONE', #251, #142, #108, .T. ) ;
#48 = DIRECTION ( 'NONE',  ( 0.000000000000000000, 0.000000000000000000, 1.000000000000000000 ) ) ;
#49 =( GEOMETRIC_REPRESENTATION_CONTEXT ( 3 ) GLOBAL_UNCERTAINTY_ASSIGNED_CONTEXT ( ( #52 ) ) GLOBAL_UNIT_ASSIGNED_CONTEXT ( ( #75, #254, #34 ) ) REPRESENTATION_CONTEXT ( 'NONE', 'WORKASPACE' ) );
#50 = FACE_BOUND ( 'NONE', #93, .T. ) ;
#51 = DIRECTION ( 'NONE',  ( 0.000000000000000000, 0.000000000000000000, 1.000000000000000000 ) ) ;
#52 = UNCERTAINTY_MEASURE_WITH_UNIT (LENGTH_MEASURE( 1.000000000000000082E-05 ), #75, 'distance_accuracy_value', 'NONE');
#53 = AXIS2_PLACEMENT_3D ( 'NONE', #137, #176, #1 ) ;
#54 = PERSON_AND_ORGANIZATION_ROLE ( 'design_owner' ) ;
#55 = ORIENTED_EDGE ( 'NONE', *, *, #68, .T. ) ;
#56 = CARTESIAN_POINT ( 'NONE',  ( 0.000000000000000000, 0.000000000000000000, 0.000000000000000000 ) ) ;
#57 = ORIENTED_EDGE ( 'NONE', *, *, #36, .F. ) ;
#58 = VECTOR ( 'NONE', #166, 1000.000000000000000 ) ;
#59 = EDGE_LOOP ( 'NONE', ( #149, #140 ) ) ;
#60 = SECURITY_CLASSIFICATION_LEVEL ( 'unclassified' ) ;
#61 = DIRECTION ( 'NONE',  ( 1.000000000000000000, 0.000000000000000000, 0.000000000000000000 ) ) ;
#62 = ORIENTED_EDGE ( 'NONE', *, *, #68, .F. ) ;
#63 = DIRECTION ( 'NONE',  ( -1.000000000000000000, 0.000000000000000000, 0.000000000000000000 ) ) ;
#64 = PRODUCT_DEFINITION_FORMATION_WITH_SPECIFIED_SOURCE ( 'LIBOVOLNÝ', '', #240, .NOT_KNOWN. ) ;
#65 = DATE_AND_TIME ( #203, #92 ) ;
#66 = DIRECTION ( 'NONE',  ( 1.000000000000000000, 0.000000000000000000, 0.000000000000000000 ) ) ;
#67 = ORIENTED_EDGE ( 'NONE', *, *, #41, .T. ) ;
#68 = EDGE_CURVE ( 'NONE', #111, #193, #71, .T. ) ;
#69 = AXIS2_PLACEMENT_3D ( 'NONE', #167, #48, #162 ) ;
#70 = CARTESIAN_POINT ( 'NONE',  ( 0.000000000000000000, 0.000000000000000000, 100.0000000000000000 ) ) ;
#71 = CIRCLE ( 'NONE', #30, 9.000000000000000000 ) ;
#72 = ORIENTED_EDGE ( 'NONE', *, *, #7, .F. ) ;
#73 = DIRECTION ( 'NONE',  ( -0.000000000000000000, -0.000000000000000000, -1.000000000000000000 ) ) ;
#74 = ORIENTED_EDGE ( 'NONE', *, *, #41, .F. ) ;
#75 =( LENGTH_UNIT ( ) NAMED_UNIT ( * ) SI_UNIT ( .MILLI., .METRE. ) );
#76 = DATE_AND_TIME ( #122, #216 ) ;
#77 = FACE_OUTER_BOUND ( 'NONE', #196, .T. ) ;
#78 = CC_DESIGN_PERSON_AND_ORGANIZATION_ASSIGNMENT ( #157, #154, ( #26 ) ) ;
#79 = COORDINATED_UNIVERSAL_TIME_OFFSET ( 1, 0, .AHEAD. ) ;
#80 = CC_DESIGN_APPROVAL ( #253, ( #136 ) ) ;
#81 = PERSON_AND_ORGANIZATION_ROLE ( 'creator' ) ;
#82 = DIRECTION ( 'NONE',  ( 1.000000000000000000, 0.000000000000000000, 0.000000000000000000 ) ) ;
#83 = EDGE_CURVE ( 'NONE', #193, #111, #163, .T. ) ;
#84 = CARTESIAN_POINT ( 'NONE',  ( -9.000000000000000000, 0.000000000000000000, 6.500000000000000000 ) ) ;
#85 = AXIS2_PLACEMENT_3D ( 'NONE', #226, #128, #143 ) ;
#86 = PLANE ( 'NONE',  #85 ) ;
#87 = DIRECTION ( 'NONE',  ( -1.000000000000000000, 0.000000000000000000, 0.000000000000000000 ) ) ;
#88 = CIRCLE ( 'NONE', #156, 9.000000000000000000 ) ;
#89 = CARTESIAN_POINT ( 'NONE',  ( 5.500000000000000000, 6.735557395310442023E-16, 100.0000000000000000 ) ) ;
#90 = ADVANCED_FACE ( 'NONE', ( #77 ), #155, .T. ) ;
#91 = VERTEX_POINT ( 'NONE', #99 ) ;
#92 = LOCAL_TIME ( 13, 20, 56.00000000000000000, #242 ) ;
#93 = EDGE_LOOP ( 'NONE', ( #72, #74 ) ) ;
#94 = COORDINATED_UNIVERSAL_TIME_OFFSET ( 1, 0, .AHEAD. ) ;
#95 = CARTESIAN_POINT ( 'NONE',  ( 0.000000000000000000, 0.000000000000000000, 6.500000000000000000 ) ) ;
#96 = APPROVAL_STATUS ( 'not_yet_approved' ) ;
#97 = DIRECTION ( 'NONE',  ( 0.000000000000000000, 0.000000000000000000, 1.000000000000000000 ) ) ;
#98 = APPROVAL_ROLE ( '' ) ;
#99 = CARTESIAN_POINT ( 'NONE',  ( -5.500000000000000000, 0.000000000000000000, 6.500000000000000000 ) ) ;
#100 = PERSON_AND_ORGANIZATION ( #192, #194 ) ;
#101 = CALENDAR_DATE ( 2023, 13, 2 ) ;
#102 = CARTESIAN_POINT ( 'NONE',  ( 5.500000000000000000, 6.735557395310442023E-16, 6.500000000000000000 ) ) ;
#103 = CC_DESIGN_APPROVAL ( #245, ( #64 ) ) ;
#104 = CC_DESIGN_PERSON_AND_ORGANIZATION_ASSIGNMENT ( #37, #121, ( #64 ) ) ;
#105 = PLANE ( 'NONE',  #69 ) ;
#106 = DIRECTION ( 'NONE',  ( 0.000000000000000000, 0.000000000000000000, 1.000000000000000000 ) ) ;
#107 = DIRECTION ( 'NONE',  ( -0.000000000000000000, -0.000000000000000000, -1.000000000000000000 ) ) ;
#108 = CIRCLE ( 'NONE', #198, 9.000000000000000000 ) ;
#109 = ADVANCED_FACE ( 'NONE', ( #179 ), #208, .T. ) ;
#110 = APPLICATION_PROTOCOL_DEFINITION ( 'international standard', 'config_control_design', 1994, #246 ) ;
#111 = VERTEX_POINT ( 'NONE', #84 ) ;
#112 = APPROVAL_PERSON_ORGANIZATION ( #239, #253, #139 ) ;
#113 = APPLICATION_PROTOCOL_DEFINITION ( 'international standard', 'config_control_design', 1994, #14 ) ;
#114 = ORIENTED_EDGE ( 'NONE', *, *, #249, .T. ) ;
#115 = ORIENTED_EDGE ( 'NONE', *, *, #206, .F. ) ;
#116 = COORDINATED_UNIVERSAL_TIME_OFFSET ( 1, 0, .AHEAD. ) ;
#117 = SHAPE_DEFINITION_REPRESENTATION ( #20, #232 ) ;
#118 = CARTESIAN_POINT ( 'NONE',  ( 0.000000000000000000, 0.000000000000000000, 6.500000000000000000 ) ) ;
#119 = ORIENTED_EDGE ( 'NONE', *, *, #83, .F. ) ;
#120 = EDGE_CURVE ( 'NONE', #18, #214, #45, .T. ) ;
#121 = PERSON_AND_ORGANIZATION_ROLE ( 'design_supplier' ) ;
#122 = CALENDAR_DATE ( 2023, 13, 2 ) ;
#123 = CARTESIAN_POINT ( 'NONE',  ( -5.500000000000000000, 0.000000000000000000, 100.0000000000000000 ) ) ;
#124 = AXIS2_PLACEMENT_3D ( 'NONE', #126, #31, #11 ) ;
#125 = EDGE_CURVE ( 'NONE', #214, #18, #202, .T. ) ;
#126 = CARTESIAN_POINT ( 'NONE',  ( 0.000000000000000000, 0.000000000000000000, 6.500000000000000000 ) ) ;
#127 = CIRCLE ( 'NONE', #255, 5.500000000000000000 ) ;
#128 = DIRECTION ( 'NONE',  ( 0.000000000000000000, 0.000000000000000000, 1.000000000000000000 ) ) ;
#129 = CIRCLE ( 'NONE', #234, 5.500000000000000000 ) ;
#130 = VERTEX_POINT ( 'NONE', #102 ) ;
#131 = CC_DESIGN_DATE_AND_TIME_ASSIGNMENT ( #159, #2, ( #136 ) ) ;
#132 = EDGE_LOOP ( 'NONE', ( #134, #170 ) ) ;
#133 = AXIS2_PLACEMENT_3D ( 'NONE', #238, #160, #218 ) ;
#134 = ORIENTED_EDGE ( 'NONE', *, *, #249, .F. ) ;
#135 = DATE_AND_TIME ( #101, #230 ) ;
#136 = SECURITY_CLASSIFICATION ( '', '', #60 ) ;
#137 = CARTESIAN_POINT ( 'NONE',  ( 0.000000000000000000, 0.000000000000000000, 6.500000000000000000 ) ) ;
#138 = LINE ( 'NONE', #183, #33 ) ;
#139 = APPROVAL_ROLE ( '' ) ;
#140 = ORIENTED_EDGE ( 'NONE', *, *, #125, .T. ) ;
#141 = AXIS2_PLACEMENT_3D ( 'NONE', #70, #106, #164 ) ;
#142 = VERTEX_POINT ( 'NONE', #144 ) ;
#143 = DIRECTION ( 'NONE',  ( 1.000000000000000000, 0.000000000000000000, -0.000000000000000000 ) ) ;
#144 = CARTESIAN_POINT ( 'NONE',  ( -9.000000000000000000, 0.000000000000000000, 0.000000000000000000 ) ) ;
#145 = CARTESIAN_POINT ( 'NONE',  ( 5.500000000000000000, 6.735557395310442023E-16, 100.0000000000000000 ) ) ;
#146 = DIRECTION ( 'NONE',  ( 1.000000000000000000, 0.000000000000000000, 0.000000000000000000 ) ) ;
#147 = CARTESIAN_POINT ( 'NONE',  ( 0.000000000000000000, 0.000000000000000000, 0.000000000000000000 ) ) ;
#148 = AXIS2_PLACEMENT_3D ( 'NONE', #147, #228, #12 ) ;
#149 = ORIENTED_EDGE ( 'NONE', *, *, #120, .T. ) ;
#150 = APPROVAL_PERSON_ORGANIZATION ( #185, #245, #42 ) ;
#151 = CALENDAR_DATE ( 2023, 13, 2 ) ;
#152 = ADVANCED_FACE ( 'NONE', ( #8 ), #86, .F. ) ;
#153 = DIRECTION ( 'NONE',  ( 0.000000000000000000, 0.000000000000000000, 1.000000000000000000 ) ) ;
#154 = PERSON_AND_ORGANIZATION_ROLE ( 'creator' ) ;
#155 = CYLINDRICAL_SURFACE ( 'NONE', #133, 9.000000000000000000 ) ;
#156 = AXIS2_PLACEMENT_3D ( 'NONE', #56, #235, #168 ) ;
#157 = PERSON_AND_ORGANIZATION ( #192, #194 ) ;
#158 = EDGE_CURVE ( 'NONE', #214, #130, #222, .T. ) ;
#159 = DATE_AND_TIME ( #151, #207 ) ;
#160 = DIRECTION ( 'NONE',  ( -0.000000000000000000, -0.000000000000000000, -1.000000000000000000 ) ) ;
#161 = CARTESIAN_POINT ( 'NONE',  ( 0.000000000000000000, 0.000000000000000000, 6.500000000000000000 ) ) ;
#162 = DIRECTION ( 'NONE',  ( 1.000000000000000000, 0.000000000000000000, -0.000000000000000000 ) ) ;
#163 = CIRCLE ( 'NONE', #53, 9.000000000000000000 ) ;
#164 = DIRECTION ( 'NONE',  ( 1.000000000000000000, 0.000000000000000000, 0.000000000000000000 ) ) ;
#165 = CYLINDRICAL_SURFACE ( 'NONE', #17, 9.000000000000000000 ) ;
#166 = DIRECTION ( 'NONE',  ( -0.000000000000000000, -0.000000000000000000, -1.000000000000000000 ) ) ;
#167 = CARTESIAN_POINT ( 'NONE',  ( 0.000000000000000000, 0.000000000000000000, 100.0000000000000000 ) ) ;
#168 = DIRECTION ( 'NONE',  ( 1.000000000000000000, 0.000000000000000000, 0.000000000000000000 ) ) ;
#169 = APPROVAL ( #96, 'NEURÈENÝ' ) ;
#170 = ORIENTED_EDGE ( 'NONE', *, *, #47, .F. ) ;
#171 = EDGE_LOOP ( 'NONE', ( #57, #62, #184, #114 ) ) ;
#172 = ORIENTED_EDGE ( 'NONE', *, *, #120, .F. ) ;
#173 = AXIS2_PLACEMENT_3D ( 'NONE', #9, #51, #146 ) ;
#174 = DATE_TIME_ROLE ( 'creation_date' ) ;
#175 = APPROVAL_DATE_TIME ( #135, #169 ) ;
#176 = DIRECTION ( 'NONE',  ( 0.000000000000000000, 0.000000000000000000, 1.000000000000000000 ) ) ;
#177 = EDGE_LOOP ( 'NONE', ( #55, #221 ) ) ;
#178 = PERSON_AND_ORGANIZATION ( #192, #194 ) ;
#179 = FACE_OUTER_BOUND ( 'NONE', #243, .T. ) ;
#180 = ADVANCED_FACE ( 'NONE', ( #188 ), #105, .T. ) ;
#181 = CC_DESIGN_APPROVAL ( #169, ( #26 ) ) ;
#182 = APPROVAL_DATE_TIME ( #65, #253 ) ;
#183 = CARTESIAN_POINT ( 'NONE',  ( 9.000000000000000000, 1.102182119232617517E-15, 6.500000000000000000 ) ) ;
#184 = ORIENTED_EDGE ( 'NONE', *, *, #206, .T. ) ;
#185 = PERSON_AND_ORGANIZATION ( #192, #194 ) ;
#186 = LOCAL_TIME ( 13, 20, 56.00000000000000000, #116 ) ;
#187 = FACE_OUTER_BOUND ( 'NONE', #171, .T. ) ;
#188 = FACE_OUTER_BOUND ( 'NONE', #59, .T. ) ;
#189 = ADVANCED_FACE ( 'NONE', ( #50, #211 ), #227, .T. ) ;
#190 = DIRECTION ( 'NONE',  ( -1.000000000000000000, 0.000000000000000000, 0.000000000000000000 ) ) ;
#191 = DESIGN_CONTEXT ( 'detailed design', #14, 'design' ) ;
#192 = PERSON ( 'NEURÈENÝ', 'NEURÈENÝ', 'NEURÈENÝ', ('NEURÈENÝ'), ('NEURÈENÝ'), ('NEURÈENÝ') ) ;
#193 = VERTEX_POINT ( 'NONE', #244 ) ;
#194 = ORGANIZATION ( 'NEURÈENÝ', 'NEURÈENÝ', '' ) ;
#195 = LINE ( 'NONE', #231, #39 ) ;
#196 = EDGE_LOOP ( 'NONE', ( #119, #201, #22, #115 ) ) ;
#197 = ADVANCED_FACE ( 'NONE', ( #187 ), #165, .T. ) ;
#198 = AXIS2_PLACEMENT_3D ( 'NONE', #200, #97, #61 ) ;
#199 = CC_DESIGN_PERSON_AND_ORGANIZATION_ASSIGNMENT ( #100, #81, ( #64 ) ) ;
#200 = CARTESIAN_POINT ( 'NONE',  ( 0.000000000000000000, 0.000000000000000000, 0.000000000000000000 ) ) ;
#201 = ORIENTED_EDGE ( 'NONE', *, *, #36, .T. ) ;
#202 = CIRCLE ( 'NONE', #173, 5.500000000000000000 ) ;
#203 = CALENDAR_DATE ( 2023, 13, 2 ) ;
#204 = DIRECTION ( 'NONE',  ( -0.000000000000000000, -0.000000000000000000, -1.000000000000000000 ) ) ;
#205 = CYLINDRICAL_SURFACE ( 'NONE', #209, 5.500000000000000000 ) ;
#206 = EDGE_CURVE ( 'NONE', #111, #142, #32, .T. ) ;
#207 = LOCAL_TIME ( 13, 20, 56.00000000000000000, #241 ) ;
#208 = CYLINDRICAL_SURFACE ( 'NONE', #6, 5.500000000000000000 ) ;
#209 = AXIS2_PLACEMENT_3D ( 'NONE', #46, #25, #63 ) ;
#210 = CARTESIAN_POINT ( 'NONE',  ( 0.000000000000000000, 0.000000000000000000, 100.0000000000000000 ) ) ;
#211 = FACE_OUTER_BOUND ( 'NONE', #177, .T. ) ;
#212 = PRODUCT_RELATED_PRODUCT_CATEGORY ( 'detail', '', ( #240 ) ) ;
#213 = ORIENTED_EDGE ( 'NONE', *, *, #158, .F. ) ;
#214 = VERTEX_POINT ( 'NONE', #89 ) ;
#215 = CC_DESIGN_PERSON_AND_ORGANIZATION_ASSIGNMENT ( #250, #54, ( #240 ) ) ;
#216 = LOCAL_TIME ( 13, 20, 56.00000000000000000, #94 ) ;
#217 = APPROVAL_DATE_TIME ( #76, #245 ) ;
#218 = DIRECTION ( 'NONE',  ( -1.000000000000000000, 0.000000000000000000, 0.000000000000000000 ) ) ;
#219 = ORIENTED_EDGE ( 'NONE', *, *, #125, .F. ) ;
#220 = FACE_OUTER_BOUND ( 'NONE', #44, .T. ) ;
#221 = ORIENTED_EDGE ( 'NONE', *, *, #83, .T. ) ;
#222 = LINE ( 'NONE', #145, #224 ) ;
#223 = CC_DESIGN_PERSON_AND_ORGANIZATION_ASSIGNMENT ( #23, #237, ( #136 ) ) ;
#224 = VECTOR ( 'NONE', #248, 1000.000000000000000 ) ;
#225 = CARTESIAN_POINT ( 'NONE',  ( 0.000000000000000000, 0.000000000000000000, 6.500000000000000000 ) ) ;
#226 = CARTESIAN_POINT ( 'NONE',  ( 0.000000000000000000, 0.000000000000000000, 0.000000000000000000 ) ) ;
#227 = PLANE ( 'NONE',  #124 ) ;
#228 = DIRECTION ( 'NONE',  ( 0.000000000000000000, 0.000000000000000000, 1.000000000000000000 ) ) ;
#229 = EDGE_CURVE ( 'NONE', #18, #91, #195, .T. ) ;
#230 = LOCAL_TIME ( 13, 20, 56.00000000000000000, #79 ) ;
#231 = CARTESIAN_POINT ( 'NONE',  ( -5.500000000000000000, 0.000000000000000000, 100.0000000000000000 ) ) ;
#232 = ADVANCED_BREP_SHAPE_REPRESENTATION ( '66bf', ( #5, #148 ), #49 ) ;
#233 = ORIENTED_EDGE ( 'NONE', *, *, #158, .T. ) ;
#234 = AXIS2_PLACEMENT_3D ( 'NONE', #95, #153, #236 ) ;
#235 = DIRECTION ( 'NONE',  ( 0.000000000000000000, 0.000000000000000000, 1.000000000000000000 ) ) ;
#236 = DIRECTION ( 'NONE',  ( 1.000000000000000000, 0.000000000000000000, 0.000000000000000000 ) ) ;
#237 = PERSON_AND_ORGANIZATION_ROLE ( 'classification_officer' ) ;
#238 = CARTESIAN_POINT ( 'NONE',  ( 0.000000000000000000, 0.000000000000000000, 6.500000000000000000 ) ) ;
#239 = PERSON_AND_ORGANIZATION ( #192, #194 ) ;
#240 = PRODUCT ( '66bf', '66bf', '', ( #35 ) ) ;
#241 = COORDINATED_UNIVERSAL_TIME_OFFSET ( 1, 0, .AHEAD. ) ;
#242 = COORDINATED_UNIVERSAL_TIME_OFFSET ( 1, 0, .AHEAD. ) ;
#243 = EDGE_LOOP ( 'NONE', ( #219, #233, #67, #27 ) ) ;
#244 = CARTESIAN_POINT ( 'NONE',  ( 9.000000000000000000, 1.102182119232617517E-15, 6.500000000000000000 ) ) ;
#245 = APPROVAL ( #19, 'NEURÈENÝ' ) ;
#246 = APPLICATION_CONTEXT ( 'configuration controlled 3d designs of mechanical parts and assemblies' ) ;
#247 = DIRECTION ( 'NONE',  ( -0.000000000000000000, -0.000000000000000000, -1.000000000000000000 ) ) ;
#248 = DIRECTION ( 'NONE',  ( -0.000000000000000000, -0.000000000000000000, -1.000000000000000000 ) ) ;
#249 = EDGE_CURVE ( 'NONE', #142, #251, #88, .T. ) ;
#250 = PERSON_AND_ORGANIZATION ( #192, #194 ) ;
#251 = VERTEX_POINT ( 'NONE', #15 ) ;
#252 = APPROVAL_PERSON_ORGANIZATION ( #178, #169, #98 ) ;
#253 = APPROVAL ( #4, 'NEURÈENÝ' ) ;
#254 =( NAMED_UNIT ( * ) PLANE_ANGLE_UNIT ( ) SI_UNIT ( $, .RADIAN. ) );
#255 = AXIS2_PLACEMENT_3D ( 'NONE', #161, #38, #66 ) ;
ENDSEC;
END-ISO-10303-21;
