ISO-10303-21;
HEADER;
FILE_DESCRIPTION (( 'STEP AP203' ),
    '1' );
FILE_NAME ('373e.STEP',
    '2023-02-13T09:41:41',
    ( '' ),
    ( '' ),
    'SwSTEP 2.0',
    'SolidWorks 2019',
    '' );
FILE_SCHEMA (( 'CONFIG_CONTROL_DESIGN' ));
ENDSEC;

DATA;
#1 = DIRECTION ( 'NONE',  ( 0.000000000000000000, 0.000000000000000000, 1.000000000000000000 ) ) ;
#2 = DATE_TIME_ROLE ( 'creation_date' ) ;
#3 = CARTESIAN_POINT ( 'NONE',  ( -9.000000000000000000, 0.000000000000000000, 7.000000000000000000 ) ) ;
#4 = VERTEX_POINT ( 'NONE', #103 ) ;
#5 = ORIENTED_EDGE ( 'NONE', *, *, #233, .T. ) ;
#6 = LINE ( 'NONE', #63, #254 ) ;
#7 = CIRCLE ( 'NONE', #144, 13.00000000000000178 ) ;
#8 = CARTESIAN_POINT ( 'NONE',  ( 13.00000000000000178, 1.592040838891559293E-15, 0.000000000000000000 ) ) ;
#9 = DIRECTION ( 'NONE',  ( 0.000000000000000000, 0.000000000000000000, 1.000000000000000000 ) ) ;
#10 = EDGE_CURVE ( 'NONE', #19, #143, #6, .T. ) ;
#11 = APPLICATION_PROTOCOL_DEFINITION ( 'international standard', 'config_control_design', 1994, #90 ) ;
#12 = ORIENTED_EDGE ( 'NONE', *, *, #105, .T. ) ;
#13 = CARTESIAN_POINT ( 'NONE',  ( 0.000000000000000000, 0.000000000000000000, 200.0000000000000000 ) ) ;
#14 = DIRECTION ( 'NONE',  ( 1.000000000000000000, 0.000000000000000000, 0.000000000000000000 ) ) ;
#15 = CC_DESIGN_PERSON_AND_ORGANIZATION_ASSIGNMENT ( #80, #235, ( #50 ) ) ;
#16 = CALENDAR_DATE ( 2023, 13, 2 ) ;
#17 = LINE ( 'NONE', #238, #189 ) ;
#18 = APPROVAL_ROLE ( '' ) ;
#19 = VERTEX_POINT ( 'NONE', #92 ) ;
#20 = EDGE_CURVE ( 'NONE', #107, #22, #217, .T. ) ;
#21 = APPROVAL_ROLE ( '' ) ;
#22 = VERTEX_POINT ( 'NONE', #3 ) ;
#23 = UNCERTAINTY_MEASURE_WITH_UNIT (LENGTH_MEASURE( 1.000000000000000082E-05 ), #211, 'distance_accuracy_value', 'NONE');
#24 = CALENDAR_DATE ( 2023, 13, 2 ) ;
#25 = DIRECTION ( 'NONE',  ( 1.000000000000000000, 0.000000000000000000, 0.000000000000000000 ) ) ;
#26 = CIRCLE ( 'NONE', #249, 9.000000000000000000 ) ;
#27 = CARTESIAN_POINT ( 'NONE',  ( -9.000000000000000000, 0.000000000000000000, 200.0000000000000000 ) ) ;
#28 = DATE_TIME_ROLE ( 'classification_date' ) ;
#29 = DATE_AND_TIME ( #126, #244 ) ;
#30 = CARTESIAN_POINT ( 'NONE',  ( 0.000000000000000000, 0.000000000000000000, 0.000000000000000000 ) ) ;
#31 = CC_DESIGN_APPROVAL ( #34, ( #224 ) ) ;
#32 = ADVANCED_FACE ( 'NONE', ( #168 ), #185, .T. ) ;
#33 = CARTESIAN_POINT ( 'NONE',  ( -13.00000000000000178, 0.000000000000000000, 7.000000000000000000 ) ) ;
#34 = APPROVAL ( #148, 'NEURÈENÝ' ) ;
#35 = CARTESIAN_POINT ( 'NONE',  ( 0.000000000000000000, 0.000000000000000000, 0.000000000000000000 ) ) ;
#36 = CARTESIAN_POINT ( 'NONE',  ( 0.000000000000000000, 0.000000000000000000, 7.000000000000000000 ) ) ;
#37 = FACE_OUTER_BOUND ( 'NONE', #146, .T. ) ;
#38 = CARTESIAN_POINT ( 'NONE',  ( 0.000000000000000000, 0.000000000000000000, 7.000000000000000000 ) ) ;
#39 = CARTESIAN_POINT ( 'NONE',  ( 0.000000000000000000, 0.000000000000000000, 200.0000000000000000 ) ) ;
#40 = PRODUCT ( '373e', '373e', '', ( #173 ) ) ;
#41 = CC_DESIGN_APPROVAL ( #191, ( #50 ) ) ;
#42 =( GEOMETRIC_REPRESENTATION_CONTEXT ( 3 ) GLOBAL_UNCERTAINTY_ASSIGNED_CONTEXT ( ( #23 ) ) GLOBAL_UNIT_ASSIGNED_CONTEXT ( ( #211, #253, #196 ) ) REPRESENTATION_CONTEXT ( 'NONE', 'WORKASPACE' ) );
#43 = CALENDAR_DATE ( 2023, 13, 2 ) ;
#44 = ORIENTED_EDGE ( 'NONE', *, *, #76, .T. ) ;
#45 = EDGE_CURVE ( 'NONE', #114, #4, #17, .T. ) ;
#46 = ORIENTED_EDGE ( 'NONE', *, *, #20, .T. ) ;
#47 = PERSON_AND_ORGANIZATION ( #97, #187 ) ;
#48 = EDGE_LOOP ( 'NONE', ( #183, #44 ) ) ;
#49 = ORIENTED_EDGE ( 'NONE', *, *, #247, .F. ) ;
#50 = SECURITY_CLASSIFICATION ( '', '', #205 ) ;
#51 = PERSON_AND_ORGANIZATION ( #97, #187 ) ;
#52 = DIRECTION ( 'NONE',  ( 0.000000000000000000, 0.000000000000000000, 1.000000000000000000 ) ) ;
#53 = AXIS2_PLACEMENT_3D ( 'NONE', #180, #65, #203 ) ;
#54 = ADVANCED_BREP_SHAPE_REPRESENTATION ( '373e', ( #112, #167 ), #42 ) ;
#55 = DIRECTION ( 'NONE',  ( -1.000000000000000000, 0.000000000000000000, 0.000000000000000000 ) ) ;
#56 = CIRCLE ( 'NONE', #208, 9.000000000000000000 ) ;
#57 = DIRECTION ( 'NONE',  ( 0.000000000000000000, 0.000000000000000000, 1.000000000000000000 ) ) ;
#58 = DIRECTION ( 'NONE',  ( 0.000000000000000000, 0.000000000000000000, 1.000000000000000000 ) ) ;
#59 = FACE_OUTER_BOUND ( 'NONE', #66, .T. ) ;
#60 = ADVANCED_FACE ( 'NONE', ( #100 ), #219, .F. ) ;
#61 = APPROVAL_PERSON_ORGANIZATION ( #179, #64, #21 ) ;
#62 = DIRECTION ( 'NONE',  ( 0.000000000000000000, 0.000000000000000000, 1.000000000000000000 ) ) ;
#63 = CARTESIAN_POINT ( 'NONE',  ( 13.00000000000000178, 1.592040838891559293E-15, 7.000000000000000000 ) ) ;
#64 = APPROVAL ( #121, 'NEURÈENÝ' ) ;
#65 = DIRECTION ( 'NONE',  ( 0.000000000000000000, 0.000000000000000000, 1.000000000000000000 ) ) ;
#66 = EDGE_LOOP ( 'NONE', ( #175, #74, #242, #226 ) ) ;
#67 = APPROVAL_DATE_TIME ( #69, #64 ) ;
#68 = CARTESIAN_POINT ( 'NONE',  ( 0.000000000000000000, 0.000000000000000000, 200.0000000000000000 ) ) ;
#69 = DATE_AND_TIME ( #86, #204 ) ;
#70 = ORIENTED_EDGE ( 'NONE', *, *, #10, .F. ) ;
#71 = DIRECTION ( 'NONE',  ( -0.000000000000000000, -0.000000000000000000, -1.000000000000000000 ) ) ;
#72 = AXIS2_PLACEMENT_3D ( 'NONE', #35, #213, #161 ) ;
#73 = DIRECTION ( 'NONE',  ( 1.000000000000000000, 0.000000000000000000, -0.000000000000000000 ) ) ;
#74 = ORIENTED_EDGE ( 'NONE', *, *, #10, .T. ) ;
#75 = DIRECTION ( 'NONE',  ( -0.000000000000000000, -0.000000000000000000, -1.000000000000000000 ) ) ;
#76 = EDGE_CURVE ( 'NONE', #19, #114, #7, .T. ) ;
#77 = CYLINDRICAL_SURFACE ( 'NONE', #230, 13.00000000000000178 ) ;
#78 = ORIENTED_EDGE ( 'NONE', *, *, #147, .F. ) ;
#79 = LOCAL_TIME ( 10, 41, 41.00000000000000000, #141 ) ;
#80 = PERSON_AND_ORGANIZATION ( #97, #187 ) ;
#81 = PERSON_AND_ORGANIZATION ( #97, #187 ) ;
#82 = ORIENTED_EDGE ( 'NONE', *, *, #45, .T. ) ;
#83 = PERSON_AND_ORGANIZATION ( #97, #187 ) ;
#84 = EDGE_LOOP ( 'NONE', ( #252, #12, #87, #237 ) ) ;
#85 = APPROVAL_PERSON_ORGANIZATION ( #83, #34, #18 ) ;
#86 = CALENDAR_DATE ( 2023, 13, 2 ) ;
#87 = ORIENTED_EDGE ( 'NONE', *, *, #247, .T. ) ;
#88 = PERSON_AND_ORGANIZATION ( #97, #187 ) ;
#89 = ORIENTED_EDGE ( 'NONE', *, *, #105, .F. ) ;
#90 = APPLICATION_CONTEXT ( 'configuration controlled 3d designs of mechanical parts and assemblies' ) ;
#91 = APPROVAL_DATE_TIME ( #29, #191 ) ;
#92 = CARTESIAN_POINT ( 'NONE',  ( 13.00000000000000178, 1.592040838891559293E-15, 7.000000000000000000 ) ) ;
#93 = EDGE_CURVE ( 'NONE', #222, #107, #26, .T. ) ;
#94 = LOCAL_TIME ( 10, 41, 41.00000000000000000, #239 ) ;
#95 = PRODUCT_RELATED_PRODUCT_CATEGORY ( 'detail', '', ( #40 ) ) ;
#96 = PLANE ( 'NONE',  #255 ) ;
#97 = PERSON ( 'NEURÈENÝ', 'NEURÈENÝ', 'NEURÈENÝ', ('NEURÈENÝ'), ('NEURÈENÝ'), ('NEURÈENÝ') ) ;
#98 = APPLICATION_PROTOCOL_DEFINITION ( 'international standard', 'config_control_design', 1994, #136 ) ;
#99 = AXIS2_PLACEMENT_3D ( 'NONE', #176, #212, #14 ) ;
#100 = FACE_OUTER_BOUND ( 'NONE', #170, .T. ) ;
#101 = EDGE_LOOP ( 'NONE', ( #193, #49 ) ) ;
#102 = DATE_AND_TIME ( #24, #94 ) ;
#103 = CARTESIAN_POINT ( 'NONE',  ( -13.00000000000000178, 0.000000000000000000, 0.000000000000000000 ) ) ;
#104 = AXIS2_PLACEMENT_3D ( 'NONE', #190, #52, #128 ) ;
#105 = EDGE_CURVE ( 'NONE', #222, #149, #200, .T. ) ;
#106 = DIRECTION ( 'NONE',  ( 1.000000000000000000, 0.000000000000000000, 0.000000000000000000 ) ) ;
#107 = VERTEX_POINT ( 'NONE', #246 ) ;
#108 = EDGE_CURVE ( 'NONE', #22, #149, #184, .T. ) ;
#109 = PRODUCT_DEFINITION_FORMATION_WITH_SPECIFIED_SOURCE ( 'LIBOVOLNÝ', '', #40, .NOT_KNOWN. ) ;
#110 = VECTOR ( 'NONE', #166, 1000.000000000000000 ) ;
#111 = FACE_OUTER_BOUND ( 'NONE', #48, .T. ) ;
#112 = MANIFOLD_SOLID_BREP ( 'Pøidat vysunutím3', #215 ) ;
#113 = DIRECTION ( 'NONE',  ( 1.000000000000000000, 0.000000000000000000, 0.000000000000000000 ) ) ;
#114 = VERTEX_POINT ( 'NONE', #33 ) ;
#115 = CYLINDRICAL_SURFACE ( 'NONE', #174, 13.00000000000000178 ) ;
#116 = DIRECTION ( 'NONE',  ( 0.000000000000000000, 0.000000000000000000, 1.000000000000000000 ) ) ;
#117 = DIRECTION ( 'NONE',  ( -0.000000000000000000, -0.000000000000000000, -1.000000000000000000 ) ) ;
#118 = DIRECTION ( 'NONE',  ( -0.000000000000000000, -0.000000000000000000, -1.000000000000000000 ) ) ;
#119 = AXIS2_PLACEMENT_3D ( 'NONE', #36, #9, #216 ) ;
#120 = CARTESIAN_POINT ( 'NONE',  ( 0.000000000000000000, 0.000000000000000000, 7.000000000000000000 ) ) ;
#121 = APPROVAL_STATUS ( 'not_yet_approved' ) ;
#122 = CC_DESIGN_PERSON_AND_ORGANIZATION_ASSIGNMENT ( #47, #202, ( #109 ) ) ;
#123 = DIRECTION ( 'NONE',  ( 0.000000000000000000, 0.000000000000000000, 1.000000000000000000 ) ) ;
#124 = PERSON_AND_ORGANIZATION_ROLE ( 'creator' ) ;
#125 = ORIENTED_EDGE ( 'NONE', *, *, #93, .T. ) ;
#126 = CALENDAR_DATE ( 2023, 13, 2 ) ;
#127 = DIRECTION ( 'NONE',  ( 0.000000000000000000, 0.000000000000000000, 1.000000000000000000 ) ) ;
#128 = DIRECTION ( 'NONE',  ( 1.000000000000000000, 0.000000000000000000, 0.000000000000000000 ) ) ;
#129 = APPROVAL_STATUS ( 'not_yet_approved' ) ;
#130 = CIRCLE ( 'NONE', #243, 13.00000000000000178 ) ;
#131 = SHAPE_DEFINITION_REPRESENTATION ( #225, #54 ) ;
#132 = CARTESIAN_POINT ( 'NONE',  ( 9.000000000000000000, 1.102182119232617714E-15, 200.0000000000000000 ) ) ;
#133 = DIRECTION ( 'NONE',  ( 1.000000000000000000, 0.000000000000000000, 0.000000000000000000 ) ) ;
#134 = AXIS2_PLACEMENT_3D ( 'NONE', #39, #118, #197 ) ;
#135 = CC_DESIGN_SECURITY_CLASSIFICATION ( #50, ( #109 ) ) ;
#136 = APPLICATION_CONTEXT ( 'configuration controlled 3d designs of mechanical parts and assemblies' ) ;
#137 = CARTESIAN_POINT ( 'NONE',  ( 0.000000000000000000, 0.000000000000000000, 7.000000000000000000 ) ) ;
#138 = DIRECTION ( 'NONE',  ( -0.000000000000000000, -0.000000000000000000, -1.000000000000000000 ) ) ;
#139 = CARTESIAN_POINT ( 'NONE',  ( 9.000000000000000000, 1.102182119232617714E-15, 200.0000000000000000 ) ) ;
#140 = CARTESIAN_POINT ( 'NONE',  ( 0.000000000000000000, 0.000000000000000000, 200.0000000000000000 ) ) ;
#141 = COORDINATED_UNIVERSAL_TIME_OFFSET ( 1, 0, .AHEAD. ) ;
#142 = EDGE_LOOP ( 'NONE', ( #70, #169, #82, #206 ) ) ;
#143 = VERTEX_POINT ( 'NONE', #8 ) ;
#144 = AXIS2_PLACEMENT_3D ( 'NONE', #120, #1, #25 ) ;
#145 = COORDINATED_UNIVERSAL_TIME_OFFSET ( 1, 0, .AHEAD. ) ;
#146 = EDGE_LOOP ( 'NONE', ( #5, #125 ) ) ;
#147 = EDGE_CURVE ( 'NONE', #143, #4, #130, .T. ) ;
#148 = APPROVAL_STATUS ( 'not_yet_approved' ) ;
#149 = VERTEX_POINT ( 'NONE', #251 ) ;
#150 = PERSON_AND_ORGANIZATION_ROLE ( 'design_supplier' ) ;
#151 = ORIENTED_EDGE ( 'NONE', *, *, #233, .F. ) ;
#152 = AXIS2_PLACEMENT_3D ( 'NONE', #13, #62, #73 ) ;
#153 = VECTOR ( 'NONE', #71, 1000.000000000000000 ) ;
#154 = ADVANCED_FACE ( 'NONE', ( #37 ), #232, .T. ) ;
#155 = APPROVAL_ROLE ( '' ) ;
#156 = DIRECTION ( 'NONE',  ( 1.000000000000000000, 0.000000000000000000, 0.000000000000000000 ) ) ;
#157 = ADVANCED_FACE ( 'NONE', ( #214 ), #192, .T. ) ;
#158 = APPROVAL_PERSON_ORGANIZATION ( #51, #191, #155 ) ;
#159 = CIRCLE ( 'NONE', #119, 13.00000000000000178 ) ;
#160 = CARTESIAN_POINT ( 'NONE',  ( 0.000000000000000000, 0.000000000000000000, 200.0000000000000000 ) ) ;
#161 = DIRECTION ( 'NONE',  ( 1.000000000000000000, 0.000000000000000000, 0.000000000000000000 ) ) ;
#162 = CC_DESIGN_APPROVAL ( #64, ( #109 ) ) ;
#163 = DESIGN_CONTEXT ( 'detailed design', #136, 'design' ) ;
#164 = EDGE_LOOP ( 'NONE', ( #89, #151, #46, #201 ) ) ;
#165 = PERSON_AND_ORGANIZATION ( #97, #187 ) ;
#166 = DIRECTION ( 'NONE',  ( -0.000000000000000000, -0.000000000000000000, -1.000000000000000000 ) ) ;
#167 = AXIS2_PLACEMENT_3D ( 'NONE', #231, #57, #113 ) ;
#168 = FACE_OUTER_BOUND ( 'NONE', #84, .T. ) ;
#169 = ORIENTED_EDGE ( 'NONE', *, *, #199, .F. ) ;
#170 = EDGE_LOOP ( 'NONE', ( #223, #78 ) ) ;
#171 = DATE_AND_TIME ( #16, #79 ) ;
#172 = FACE_BOUND ( 'NONE', #101, .T. ) ;
#173 = MECHANICAL_CONTEXT ( 'NONE', #90, 'mechanical' ) ;
#174 = AXIS2_PLACEMENT_3D ( 'NONE', #195, #117, #248 ) ;
#175 = ORIENTED_EDGE ( 'NONE', *, *, #76, .F. ) ;
#176 = CARTESIAN_POINT ( 'NONE',  ( 0.000000000000000000, 0.000000000000000000, 7.000000000000000000 ) ) ;
#177 = DIRECTION ( 'NONE',  ( -1.000000000000000000, 0.000000000000000000, 0.000000000000000000 ) ) ;
#178 = ADVANCED_FACE ( 'NONE', ( #59 ), #77, .T. ) ;
#179 = PERSON_AND_ORGANIZATION ( #97, #187 ) ;
#180 = CARTESIAN_POINT ( 'NONE',  ( 0.000000000000000000, 0.000000000000000000, 0.000000000000000000 ) ) ;
#181 = APPROVAL_DATE_TIME ( #102, #34 ) ;
#182 = DIRECTION ( 'NONE',  ( -0.000000000000000000, -0.000000000000000000, -1.000000000000000000 ) ) ;
#183 = ORIENTED_EDGE ( 'NONE', *, *, #199, .T. ) ;
#184 = CIRCLE ( 'NONE', #104, 9.000000000000000000 ) ;
#185 = CYLINDRICAL_SURFACE ( 'NONE', #134, 9.000000000000000000 ) ;
#186 = CC_DESIGN_PERSON_AND_ORGANIZATION_ASSIGNMENT ( #88, #150, ( #109 ) ) ;
#187 = ORGANIZATION ( 'NEURÈENÝ', 'NEURÈENÝ', '' ) ;
#188 = EDGE_CURVE ( 'NONE', #4, #143, #198, .T. ) ;
#189 = VECTOR ( 'NONE', #240, 1000.000000000000000 ) ;
#190 = CARTESIAN_POINT ( 'NONE',  ( 0.000000000000000000, 0.000000000000000000, 7.000000000000000000 ) ) ;
#191 = APPROVAL ( #129, 'NEURÈENÝ' ) ;
#192 = CYLINDRICAL_SURFACE ( 'NONE', #228, 9.000000000000000000 ) ;
#193 = ORIENTED_EDGE ( 'NONE', *, *, #108, .F. ) ;
#194 = FACE_OUTER_BOUND ( 'NONE', #142, .T. ) ;
#195 = CARTESIAN_POINT ( 'NONE',  ( 0.000000000000000000, 0.000000000000000000, 7.000000000000000000 ) ) ;
#196 =( NAMED_UNIT ( * ) SI_UNIT ( $, .STERADIAN. ) SOLID_ANGLE_UNIT ( ) );
#197 = DIRECTION ( 'NONE',  ( -1.000000000000000000, 0.000000000000000000, 0.000000000000000000 ) ) ;
#198 = CIRCLE ( 'NONE', #72, 13.00000000000000178 ) ;
#199 = EDGE_CURVE ( 'NONE', #114, #19, #159, .T. ) ;
#200 = LINE ( 'NONE', #132, #153 ) ;
#201 = ORIENTED_EDGE ( 'NONE', *, *, #108, .T. ) ;
#202 = PERSON_AND_ORGANIZATION_ROLE ( 'creator' ) ;
#203 = DIRECTION ( 'NONE',  ( 1.000000000000000000, 0.000000000000000000, -0.000000000000000000 ) ) ;
#204 = LOCAL_TIME ( 10, 41, 41.00000000000000000, #241 ) ;
#205 = SECURITY_CLASSIFICATION_LEVEL ( 'unclassified' ) ;
#206 = ORIENTED_EDGE ( 'NONE', *, *, #188, .T. ) ;
#207 = COORDINATED_UNIVERSAL_TIME_OFFSET ( 1, 0, .AHEAD. ) ;
#208 = AXIS2_PLACEMENT_3D ( 'NONE', #160, #58, #156 ) ;
#209 = CIRCLE ( 'NONE', #99, 9.000000000000000000 ) ;
#210 = ADVANCED_FACE ( 'NONE', ( #172, #111 ), #96, .T. ) ;
#211 =( LENGTH_UNIT ( ) NAMED_UNIT ( * ) SI_UNIT ( .MILLI., .METRE. ) );
#212 = DIRECTION ( 'NONE',  ( 0.000000000000000000, 0.000000000000000000, 1.000000000000000000 ) ) ;
#213 = DIRECTION ( 'NONE',  ( 0.000000000000000000, 0.000000000000000000, 1.000000000000000000 ) ) ;
#214 = FACE_OUTER_BOUND ( 'NONE', #164, .T. ) ;
#215 = CLOSED_SHELL ( 'NONE', ( #32, #178, #245, #210, #60, #157, #154 ) ) ;
#216 = DIRECTION ( 'NONE',  ( 1.000000000000000000, 0.000000000000000000, 0.000000000000000000 ) ) ;
#217 = LINE ( 'NONE', #27, #110 ) ;
#218 = CC_DESIGN_PERSON_AND_ORGANIZATION_ASSIGNMENT ( #165, #124, ( #224 ) ) ;
#219 = PLANE ( 'NONE',  #53 ) ;
#220 = LOCAL_TIME ( 10, 41, 41.00000000000000000, #145 ) ;
#221 = PERSON_AND_ORGANIZATION_ROLE ( 'design_owner' ) ;
#222 = VERTEX_POINT ( 'NONE', #139 ) ;
#223 = ORIENTED_EDGE ( 'NONE', *, *, #188, .F. ) ;
#224 = PRODUCT_DEFINITION ( 'NEZNÁMÝ', '', #109, #163 ) ;
#225 = PRODUCT_DEFINITION_SHAPE ( 'NONE', 'NONE',  #224 ) ;
#226 = ORIENTED_EDGE ( 'NONE', *, *, #45, .F. ) ;
#227 = CC_DESIGN_PERSON_AND_ORGANIZATION_ASSIGNMENT ( #81, #221, ( #40 ) ) ;
#228 = AXIS2_PLACEMENT_3D ( 'NONE', #140, #138, #55 ) ;
#229 = CC_DESIGN_DATE_AND_TIME_ASSIGNMENT ( #171, #28, ( #50 ) ) ;
#230 = AXIS2_PLACEMENT_3D ( 'NONE', #137, #75, #177 ) ;
#231 = CARTESIAN_POINT ( 'NONE',  ( 0.000000000000000000, 0.000000000000000000, 0.000000000000000000 ) ) ;
#232 = PLANE ( 'NONE',  #152 ) ;
#233 = EDGE_CURVE ( 'NONE', #107, #222, #56, .T. ) ;
#234 = DIRECTION ( 'NONE',  ( 1.000000000000000000, 0.000000000000000000, -0.000000000000000000 ) ) ;
#235 = PERSON_AND_ORGANIZATION_ROLE ( 'classification_officer' ) ;
#236 = DATE_AND_TIME ( #43, #220 ) ;
#237 = ORIENTED_EDGE ( 'NONE', *, *, #20, .F. ) ;
#238 = CARTESIAN_POINT ( 'NONE',  ( -13.00000000000000178, 0.000000000000000000, 7.000000000000000000 ) ) ;
#239 = COORDINATED_UNIVERSAL_TIME_OFFSET ( 1, 0, .AHEAD. ) ;
#240 = DIRECTION ( 'NONE',  ( -0.000000000000000000, -0.000000000000000000, -1.000000000000000000 ) ) ;
#241 = COORDINATED_UNIVERSAL_TIME_OFFSET ( 1, 0, .AHEAD. ) ;
#242 = ORIENTED_EDGE ( 'NONE', *, *, #147, .T. ) ;
#243 = AXIS2_PLACEMENT_3D ( 'NONE', #30, #127, #133 ) ;
#244 = LOCAL_TIME ( 10, 41, 41.00000000000000000, #207 ) ;
#245 = ADVANCED_FACE ( 'NONE', ( #194 ), #115, .T. ) ;
#246 = CARTESIAN_POINT ( 'NONE',  ( -9.000000000000000000, 0.000000000000000000, 200.0000000000000000 ) ) ;
#247 = EDGE_CURVE ( 'NONE', #149, #22, #209, .T. ) ;
#248 = DIRECTION ( 'NONE',  ( -1.000000000000000000, 0.000000000000000000, 0.000000000000000000 ) ) ;
#249 = AXIS2_PLACEMENT_3D ( 'NONE', #68, #123, #106 ) ;
#250 = CC_DESIGN_DATE_AND_TIME_ASSIGNMENT ( #236, #2, ( #224 ) ) ;
#251 = CARTESIAN_POINT ( 'NONE',  ( 9.000000000000000000, 1.102182119232617714E-15, 7.000000000000000000 ) ) ;
#252 = ORIENTED_EDGE ( 'NONE', *, *, #93, .F. ) ;
#253 =( NAMED_UNIT ( * ) PLANE_ANGLE_UNIT ( ) SI_UNIT ( $, .RADIAN. ) );
#254 = VECTOR ( 'NONE', #182, 1000.000000000000000 ) ;
#255 = AXIS2_PLACEMENT_3D ( 'NONE', #38, #116, #234 ) ;
ENDSEC;
END-ISO-10303-21;
