ISO-10303-21;
HEADER;
FILE_DESCRIPTION (( 'STEP AP203' ),
    '1' );
FILE_NAME ('686e.STEP',
    '2023-02-13T16:21:57',
    ( '' ),
    ( '' ),
    'SwSTEP 2.0',
    'SolidWorks 2019',
    '' );
FILE_SCHEMA (( 'CONFIG_CONTROL_DESIGN' ));
ENDSEC;

DATA;
#1 = PERSON_AND_ORGANIZATION ( #210, #243 ) ;
#2 = DATE_AND_TIME ( #176, #239 ) ;
#3 = LOCAL_TIME ( 17, 21, 57.00000000000000000, #133 ) ;
#4 = EDGE_LOOP ( 'NONE', ( #40, #90 ) ) ;
#5 = VERTEX_POINT ( 'NONE', #6 ) ;
#6 = CARTESIAN_POINT ( 'NONE',  ( -2.100000000000000089, 0.000000000000000000, 4.000000000000000000 ) ) ;
#7 = EDGE_LOOP ( 'NONE', ( #131, #81, #215, #252 ) ) ;
#8 = ORIENTED_EDGE ( 'NONE', *, *, #26, .T. ) ;
#9 = ADVANCED_FACE ( 'NONE', ( #135 ), #158, .T. ) ;
#10 = CC_DESIGN_DATE_AND_TIME_ASSIGNMENT ( #98, #44, ( #75 ) ) ;
#11 = LINE ( 'NONE', #68, #178 ) ;
#12 = AXIS2_PLACEMENT_3D ( 'NONE', #82, #83, #47 ) ;
#13 = AXIS2_PLACEMENT_3D ( 'NONE', #208, #91, #122 ) ;
#14 = APPROVAL ( #56, 'NEURÈENÝ' ) ;
#15 = CARTESIAN_POINT ( 'NONE',  ( 0.000000000000000000, 0.000000000000000000, 4.000000000000000000 ) ) ;
#16 = DIRECTION ( 'NONE',  ( 0.000000000000000000, 0.000000000000000000, 1.000000000000000000 ) ) ;
#17 = CARTESIAN_POINT ( 'NONE',  ( -4.000000000000000000, 0.000000000000000000, 4.000000000000000000 ) ) ;
#18 = ADVANCED_FACE ( 'NONE', ( #216 ), #46, .T. ) ;
#19 = CALENDAR_DATE ( 2023, 13, 2 ) ;
#20 = VERTEX_POINT ( 'NONE', #29 ) ;
#21 = ORIENTED_EDGE ( 'NONE', *, *, #228, .F. ) ;
#22 = PERSON_AND_ORGANIZATION ( #210, #243 ) ;
#23 = DATE_TIME_ROLE ( 'classification_date' ) ;
#24 = ADVANCED_FACE ( 'NONE', ( #219 ), #64, .T. ) ;
#25 = DATE_AND_TIME ( #117, #3 ) ;
#26 = EDGE_CURVE ( 'NONE', #61, #153, #206, .T. ) ;
#27 = AXIS2_PLACEMENT_3D ( 'NONE', #128, #105, #65 ) ;
#28 = MANIFOLD_SOLID_BREP ( 'Pøidat vysunutím3', #231 ) ;
#29 = CARTESIAN_POINT ( 'NONE',  ( 4.000000000000000000, 4.898587196589412829E-16, 4.000000000000000000 ) ) ;
#30 = ADVANCED_FACE ( 'NONE', ( #164 ), #107, .T. ) ;
#31 = DIRECTION ( 'NONE',  ( 0.000000000000000000, 0.000000000000000000, 1.000000000000000000 ) ) ;
#32 = CARTESIAN_POINT ( 'NONE',  ( 2.100000000000000089, 2.571758278209441957E-16, 630.0000000000000000 ) ) ;
#33 = APPLICATION_CONTEXT ( 'configuration controlled 3d designs of mechanical parts and assemblies' ) ;
#34 = DIRECTION ( 'NONE',  ( 1.000000000000000000, 0.000000000000000000, 0.000000000000000000 ) ) ;
#35 = COORDINATED_UNIVERSAL_TIME_OFFSET ( 1, 0, .AHEAD. ) ;
#36 = CC_DESIGN_PERSON_AND_ORGANIZATION_ASSIGNMENT ( #1, #171, ( #49 ) ) ;
#37 = LOCAL_TIME ( 17, 21, 57.00000000000000000, #189 ) ;
#38 = SECURITY_CLASSIFICATION_LEVEL ( 'unclassified' ) ;
#39 = EDGE_LOOP ( 'NONE', ( #195, #118 ) ) ;
#40 = ORIENTED_EDGE ( 'NONE', *, *, #228, .T. ) ;
#41 = PERSON_AND_ORGANIZATION_ROLE ( 'design_supplier' ) ;
#42 = APPROVAL_STATUS ( 'not_yet_approved' ) ;
#43 = ORIENTED_EDGE ( 'NONE', *, *, #127, .T. ) ;
#44 = DATE_TIME_ROLE ( 'creation_date' ) ;
#45 = EDGE_LOOP ( 'NONE', ( #204, #147 ) ) ;
#46 = CYLINDRICAL_SURFACE ( 'NONE', #94, 2.100000000000000089 ) ;
#47 = DIRECTION ( 'NONE',  ( -1.000000000000000000, 0.000000000000000000, 0.000000000000000000 ) ) ;
#48 = DIRECTION ( 'NONE',  ( -0.000000000000000000, -0.000000000000000000, -1.000000000000000000 ) ) ;
#49 = SECURITY_CLASSIFICATION ( '', '', #38 ) ;
#50 = APPLICATION_CONTEXT ( 'configuration controlled 3d designs of mechanical parts and assemblies' ) ;
#51 = CARTESIAN_POINT ( 'NONE',  ( 0.000000000000000000, 0.000000000000000000, 4.000000000000000000 ) ) ;
#52 = DIRECTION ( 'NONE',  ( 1.000000000000000000, 0.000000000000000000, 0.000000000000000000 ) ) ;
#53 = CARTESIAN_POINT ( 'NONE',  ( 4.000000000000000000, 4.898587196589412829E-16, 0.000000000000000000 ) ) ;
#54 = DIRECTION ( 'NONE',  ( 1.000000000000000000, 0.000000000000000000, -0.000000000000000000 ) ) ;
#55 = EDGE_CURVE ( 'NONE', #150, #5, #66, .T. ) ;
#56 = APPROVAL_STATUS ( 'not_yet_approved' ) ;
#57 = UNCERTAINTY_MEASURE_WITH_UNIT (LENGTH_MEASURE( 1.000000000000000082E-05 ), #226, 'distance_accuracy_value', 'NONE');
#58 = COORDINATED_UNIVERSAL_TIME_OFFSET ( 1, 0, .AHEAD. ) ;
#59 = DIRECTION ( 'NONE',  ( -0.000000000000000000, -0.000000000000000000, -1.000000000000000000 ) ) ;
#60 = CARTESIAN_POINT ( 'NONE',  ( -4.000000000000000000, 0.000000000000000000, 0.000000000000000000 ) ) ;
#61 = VERTEX_POINT ( 'NONE', #89 ) ;
#62 = CALENDAR_DATE ( 2023, 13, 2 ) ;
#63 = ORIENTED_EDGE ( 'NONE', *, *, #221, .F. ) ;
#64 = PLANE ( 'NONE',  #213 ) ;
#65 = DIRECTION ( 'NONE',  ( 1.000000000000000000, 0.000000000000000000, -0.000000000000000000 ) ) ;
#66 = LINE ( 'NONE', #141, #92 ) ;
#67 = DIRECTION ( 'NONE',  ( -0.000000000000000000, -0.000000000000000000, -1.000000000000000000 ) ) ;
#68 = CARTESIAN_POINT ( 'NONE',  ( 4.000000000000000000, 4.898587196589412829E-16, 4.000000000000000000 ) ) ;
#69 = DIRECTION ( 'NONE',  ( -0.000000000000000000, -0.000000000000000000, -1.000000000000000000 ) ) ;
#70 = APPLICATION_PROTOCOL_DEFINITION ( 'international standard', 'config_control_design', 1994, #33 ) ;
#71 = CARTESIAN_POINT ( 'NONE',  ( -2.100000000000000089, 0.000000000000000000, 630.0000000000000000 ) ) ;
#72 = ORIENTED_EDGE ( 'NONE', *, *, #55, .F. ) ;
#73 = ADVANCED_FACE ( 'NONE', ( #167, #225 ), #86, .T. ) ;
#74 = CARTESIAN_POINT ( 'NONE',  ( 0.000000000000000000, 0.000000000000000000, 0.000000000000000000 ) ) ;
#75 = PRODUCT_DEFINITION ( 'NEZNÁMÝ', '', #249, #172 ) ;
#76 = ORIENTED_EDGE ( 'NONE', *, *, #241, .F. ) ;
#77 = PERSON_AND_ORGANIZATION ( #210, #243 ) ;
#78 = PERSON_AND_ORGANIZATION ( #210, #243 ) ;
#79 = AXIS2_PLACEMENT_3D ( 'NONE', #247, #108, #205 ) ;
#80 = ORIENTED_EDGE ( 'NONE', *, *, #241, .T. ) ;
#81 = ORIENTED_EDGE ( 'NONE', *, *, #139, .T. ) ;
#82 = CARTESIAN_POINT ( 'NONE',  ( 0.000000000000000000, 0.000000000000000000, 630.0000000000000000 ) ) ;
#83 = DIRECTION ( 'NONE',  ( -0.000000000000000000, -0.000000000000000000, -1.000000000000000000 ) ) ;
#84 = LOCAL_TIME ( 17, 21, 57.00000000000000000, #35 ) ;
#85 = LOCAL_TIME ( 17, 21, 57.00000000000000000, #58 ) ;
#86 = PLANE ( 'NONE',  #160 ) ;
#87 = ADVANCED_BREP_SHAPE_REPRESENTATION ( '686e', ( #28, #193 ), #184 ) ;
#88 = DIRECTION ( 'NONE',  ( -1.000000000000000000, 0.000000000000000000, 0.000000000000000000 ) ) ;
#89 = CARTESIAN_POINT ( 'NONE',  ( 2.100000000000000089, 2.571758278209441957E-16, 630.0000000000000000 ) ) ;
#90 = ORIENTED_EDGE ( 'NONE', *, *, #156, .T. ) ;
#91 = DIRECTION ( 'NONE',  ( 0.000000000000000000, 0.000000000000000000, 1.000000000000000000 ) ) ;
#92 = VECTOR ( 'NONE', #106, 1000.000000000000000 ) ;
#93 = DIRECTION ( 'NONE',  ( 1.000000000000000000, 0.000000000000000000, 0.000000000000000000 ) ) ;
#94 = AXIS2_PLACEMENT_3D ( 'NONE', #218, #48, #120 ) ;
#95 = APPROVAL_DATE_TIME ( #2, #114 ) ;
#96 = CARTESIAN_POINT ( 'NONE',  ( 0.000000000000000000, 0.000000000000000000, 0.000000000000000000 ) ) ;
#97 = CIRCLE ( 'NONE', #109, 4.000000000000000000 ) ;
#98 = DATE_AND_TIME ( #62, #85 ) ;
#99 = ORIENTED_EDGE ( 'NONE', *, *, #55, .T. ) ;
#100 = CC_DESIGN_PERSON_AND_ORGANIZATION_ASSIGNMENT ( #113, #251, ( #134 ) ) ;
#101 = PERSON_AND_ORGANIZATION ( #210, #243 ) ;
#102 = AXIS2_PLACEMENT_3D ( 'NONE', #234, #186, #170 ) ;
#103 = VECTOR ( 'NONE', #227, 1000.000000000000000 ) ;
#104 = VERTEX_POINT ( 'NONE', #53 ) ;
#105 = DIRECTION ( 'NONE',  ( 0.000000000000000000, 0.000000000000000000, 1.000000000000000000 ) ) ;
#106 = DIRECTION ( 'NONE',  ( -0.000000000000000000, -0.000000000000000000, -1.000000000000000000 ) ) ;
#107 = CYLINDRICAL_SURFACE ( 'NONE', #202, 4.000000000000000000 ) ;
#108 = DIRECTION ( 'NONE',  ( 0.000000000000000000, 0.000000000000000000, 1.000000000000000000 ) ) ;
#109 = AXIS2_PLACEMENT_3D ( 'NONE', #96, #155, #238 ) ;
#110 = PLANE ( 'NONE',  #27 ) ;
#111 = ADVANCED_FACE ( 'NONE', ( #163 ), #125, .T. ) ;
#112 = FACE_OUTER_BOUND ( 'NONE', #149, .T. ) ;
#113 = PERSON_AND_ORGANIZATION ( #210, #243 ) ;
#114 = APPROVAL ( #42, 'NEURÈENÝ' ) ;
#115 = APPROVAL_ROLE ( '' ) ;
#116 = PRODUCT_RELATED_PRODUCT_CATEGORY ( 'detail', '', ( #134 ) ) ;
#117 = CALENDAR_DATE ( 2023, 13, 2 ) ;
#118 = ORIENTED_EDGE ( 'NONE', *, *, #121, .T. ) ;
#119 = DATE_AND_TIME ( #19, #37 ) ;
#120 = DIRECTION ( 'NONE',  ( -1.000000000000000000, 0.000000000000000000, 0.000000000000000000 ) ) ;
#121 = EDGE_CURVE ( 'NONE', #61, #150, #154, .T. ) ;
#122 = DIRECTION ( 'NONE',  ( 1.000000000000000000, 0.000000000000000000, 0.000000000000000000 ) ) ;
#123 = CARTESIAN_POINT ( 'NONE',  ( 0.000000000000000000, 0.000000000000000000, 4.000000000000000000 ) ) ;
#124 = CC_DESIGN_PERSON_AND_ORGANIZATION_ASSIGNMENT ( #22, #41, ( #249 ) ) ;
#125 = CYLINDRICAL_SURFACE ( 'NONE', #185, 4.000000000000000000 ) ;
#126 = CARTESIAN_POINT ( 'NONE',  ( 0.000000000000000000, 0.000000000000000000, 4.000000000000000000 ) ) ;
#127 = EDGE_CURVE ( 'NONE', #153, #5, #223, .T. ) ;
#128 = CARTESIAN_POINT ( 'NONE',  ( 0.000000000000000000, 0.000000000000000000, 0.000000000000000000 ) ) ;
#129 = DIRECTION ( 'NONE',  ( 0.000000000000000000, 0.000000000000000000, 1.000000000000000000 ) ) ;
#130 = SHAPE_DEFINITION_REPRESENTATION ( #201, #87 ) ;
#131 = ORIENTED_EDGE ( 'NONE', *, *, #156, .F. ) ;
#132 = CIRCLE ( 'NONE', #175, 4.000000000000000000 ) ;
#133 = COORDINATED_UNIVERSAL_TIME_OFFSET ( 1, 0, .AHEAD. ) ;
#134 = PRODUCT ( '686e', '686e', '', ( #203 ) ) ;
#135 = FACE_OUTER_BOUND ( 'NONE', #136, .T. ) ;
#136 = EDGE_LOOP ( 'NONE', ( #159, #190, #99, #179 ) ) ;
#137 = DIRECTION ( 'NONE',  ( 0.000000000000000000, 0.000000000000000000, 1.000000000000000000 ) ) ;
#138 = CARTESIAN_POINT ( 'NONE',  ( 0.000000000000000000, 0.000000000000000000, 630.0000000000000000 ) ) ;
#139 = EDGE_CURVE ( 'NONE', #20, #104, #11, .T. ) ;
#140 = AXIS2_PLACEMENT_3D ( 'NONE', #123, #31, #181 ) ;
#141 = CARTESIAN_POINT ( 'NONE',  ( -2.100000000000000089, 0.000000000000000000, 630.0000000000000000 ) ) ;
#142 = CARTESIAN_POINT ( 'NONE',  ( 0.000000000000000000, 0.000000000000000000, 4.000000000000000000 ) ) ;
#143 = EDGE_CURVE ( 'NONE', #5, #153, #177, .T. ) ;
#144 = DIRECTION ( 'NONE',  ( 0.000000000000000000, 0.000000000000000000, 1.000000000000000000 ) ) ;
#145 = APPLICATION_PROTOCOL_DEFINITION ( 'international standard', 'config_control_design', 1994, #50 ) ;
#146 = CC_DESIGN_APPROVAL ( #217, ( #249 ) ) ;
#147 = ORIENTED_EDGE ( 'NONE', *, *, #127, .F. ) ;
#148 = COORDINATED_UNIVERSAL_TIME_OFFSET ( 1, 0, .AHEAD. ) ;
#149 = EDGE_LOOP ( 'NONE', ( #76, #63 ) ) ;
#150 = VERTEX_POINT ( 'NONE', #71 ) ;
#151 = CARTESIAN_POINT ( 'NONE',  ( 0.000000000000000000, 0.000000000000000000, 4.000000000000000000 ) ) ;
#152 = PERSON_AND_ORGANIZATION_ROLE ( 'creator' ) ;
#153 = VERTEX_POINT ( 'NONE', #191 ) ;
#154 = CIRCLE ( 'NONE', #79, 2.100000000000000089 ) ;
#155 = DIRECTION ( 'NONE',  ( 0.000000000000000000, 0.000000000000000000, 1.000000000000000000 ) ) ;
#156 = EDGE_CURVE ( 'NONE', #20, #235, #188, .T. ) ;
#157 = EDGE_LOOP ( 'NONE', ( #199, #21, #197, #80 ) ) ;
#158 = CYLINDRICAL_SURFACE ( 'NONE', #12, 2.100000000000000089 ) ;
#159 = ORIENTED_EDGE ( 'NONE', *, *, #26, .F. ) ;
#160 = AXIS2_PLACEMENT_3D ( 'NONE', #126, #162, #54 ) ;
#161 = APPROVAL_PERSON_ORGANIZATION ( #229, #14, #207 ) ;
#162 = DIRECTION ( 'NONE',  ( 0.000000000000000000, 0.000000000000000000, 1.000000000000000000 ) ) ;
#163 = FACE_OUTER_BOUND ( 'NONE', #7, .T. ) ;
#164 = FACE_OUTER_BOUND ( 'NONE', #157, .T. ) ;
#165 = CIRCLE ( 'NONE', #13, 4.000000000000000000 ) ;
#166 = EDGE_CURVE ( 'NONE', #150, #61, #211, .T. ) ;
#167 = FACE_BOUND ( 'NONE', #45, .T. ) ;
#168 = DIRECTION ( 'NONE',  ( 1.000000000000000000, 0.000000000000000000, 0.000000000000000000 ) ) ;
#169 = CC_DESIGN_PERSON_AND_ORGANIZATION_ASSIGNMENT ( #236, #198, ( #249 ) ) ;
#170 = DIRECTION ( 'NONE',  ( 1.000000000000000000, 0.000000000000000000, 0.000000000000000000 ) ) ;
#171 = PERSON_AND_ORGANIZATION_ROLE ( 'classification_officer' ) ;
#172 = DESIGN_CONTEXT ( 'detailed design', #50, 'design' ) ;
#173 = DATE_AND_TIME ( #254, #84 ) ;
#174 = CC_DESIGN_PERSON_AND_ORGANIZATION_ASSIGNMENT ( #77, #152, ( #75 ) ) ;
#175 = AXIS2_PLACEMENT_3D ( 'NONE', #51, #16, #34 ) ;
#176 = CALENDAR_DATE ( 2023, 13, 2 ) ;
#177 = CIRCLE ( 'NONE', #209, 2.100000000000000089 ) ;
#178 = VECTOR ( 'NONE', #69, 1000.000000000000000 ) ;
#179 = ORIENTED_EDGE ( 'NONE', *, *, #143, .T. ) ;
#180 = CC_DESIGN_SECURITY_CLASSIFICATION ( #49, ( #249 ) ) ;
#181 = DIRECTION ( 'NONE',  ( 1.000000000000000000, 0.000000000000000000, 0.000000000000000000 ) ) ;
#182 = EDGE_CURVE ( 'NONE', #235, #214, #255, .T. ) ;
#183 = CARTESIAN_POINT ( 'NONE',  ( 0.000000000000000000, 0.000000000000000000, 4.000000000000000000 ) ) ;
#184 =( GEOMETRIC_REPRESENTATION_CONTEXT ( 3 ) GLOBAL_UNCERTAINTY_ASSIGNED_CONTEXT ( ( #57 ) ) GLOBAL_UNIT_ASSIGNED_CONTEXT ( ( #226, #253, #244 ) ) REPRESENTATION_CONTEXT ( 'NONE', 'WORKASPACE' ) );
#185 = AXIS2_PLACEMENT_3D ( 'NONE', #183, #245, #250 ) ;
#186 = DIRECTION ( 'NONE',  ( 0.000000000000000000, 0.000000000000000000, 1.000000000000000000 ) ) ;
#187 = AXIS2_PLACEMENT_3D ( 'NONE', #151, #129, #93 ) ;
#188 = CIRCLE ( 'NONE', #187, 4.000000000000000000 ) ;
#189 = COORDINATED_UNIVERSAL_TIME_OFFSET ( 1, 0, .AHEAD. ) ;
#190 = ORIENTED_EDGE ( 'NONE', *, *, #166, .F. ) ;
#191 = CARTESIAN_POINT ( 'NONE',  ( 2.100000000000000089, 2.571758278209441957E-16, 4.000000000000000000 ) ) ;
#192 = APPROVAL_DATE_TIME ( #119, #217 ) ;
#193 = AXIS2_PLACEMENT_3D ( 'NONE', #74, #137, #52 ) ;
#194 = APPROVAL_PERSON_ORGANIZATION ( #78, #217, #237 ) ;
#195 = ORIENTED_EDGE ( 'NONE', *, *, #166, .T. ) ;
#196 = APPROVAL_STATUS ( 'not_yet_approved' ) ;
#197 = ORIENTED_EDGE ( 'NONE', *, *, #182, .T. ) ;
#198 = PERSON_AND_ORGANIZATION_ROLE ( 'creator' ) ;
#199 = ORIENTED_EDGE ( 'NONE', *, *, #139, .F. ) ;
#200 = APPROVAL_PERSON_ORGANIZATION ( #101, #114, #115 ) ;
#201 = PRODUCT_DEFINITION_SHAPE ( 'NONE', 'NONE',  #75 ) ;
#202 = AXIS2_PLACEMENT_3D ( 'NONE', #15, #67, #88 ) ;
#203 = MECHANICAL_CONTEXT ( 'NONE', #33, 'mechanical' ) ;
#204 = ORIENTED_EDGE ( 'NONE', *, *, #143, .F. ) ;
#205 = DIRECTION ( 'NONE',  ( 1.000000000000000000, 0.000000000000000000, 0.000000000000000000 ) ) ;
#206 = LINE ( 'NONE', #32, #103 ) ;
#207 = APPROVAL_ROLE ( '' ) ;
#208 = CARTESIAN_POINT ( 'NONE',  ( 0.000000000000000000, 0.000000000000000000, 0.000000000000000000 ) ) ;
#209 = AXIS2_PLACEMENT_3D ( 'NONE', #142, #144, #168 ) ;
#210 = PERSON ( 'NEURÈENÝ', 'NEURÈENÝ', 'NEURÈENÝ', ('NEURÈENÝ'), ('NEURÈENÝ'), ('NEURÈENÝ') ) ;
#211 = CIRCLE ( 'NONE', #102, 2.100000000000000089 ) ;
#212 = CC_DESIGN_APPROVAL ( #14, ( #75 ) ) ;
#213 = AXIS2_PLACEMENT_3D ( 'NONE', #138, #222, #224 ) ;
#214 = VERTEX_POINT ( 'NONE', #60 ) ;
#215 = ORIENTED_EDGE ( 'NONE', *, *, #221, .T. ) ;
#216 = FACE_OUTER_BOUND ( 'NONE', #240, .T. ) ;
#217 = APPROVAL ( #196, 'NEURÈENÝ' ) ;
#218 = CARTESIAN_POINT ( 'NONE',  ( 0.000000000000000000, 0.000000000000000000, 630.0000000000000000 ) ) ;
#219 = FACE_OUTER_BOUND ( 'NONE', #39, .T. ) ;
#220 = CC_DESIGN_APPROVAL ( #114, ( #49 ) ) ;
#221 = EDGE_CURVE ( 'NONE', #104, #214, #97, .T. ) ;
#222 = DIRECTION ( 'NONE',  ( 0.000000000000000000, 0.000000000000000000, 1.000000000000000000 ) ) ;
#223 = CIRCLE ( 'NONE', #140, 2.100000000000000089 ) ;
#224 = DIRECTION ( 'NONE',  ( 1.000000000000000000, 0.000000000000000000, -0.000000000000000000 ) ) ;
#225 = FACE_OUTER_BOUND ( 'NONE', #4, .T. ) ;
#226 =( LENGTH_UNIT ( ) NAMED_UNIT ( * ) SI_UNIT ( .MILLI., .METRE. ) );
#227 = DIRECTION ( 'NONE',  ( -0.000000000000000000, -0.000000000000000000, -1.000000000000000000 ) ) ;
#228 = EDGE_CURVE ( 'NONE', #235, #20, #132, .T. ) ;
#229 = PERSON_AND_ORGANIZATION ( #210, #243 ) ;
#230 = APPROVAL_DATE_TIME ( #173, #14 ) ;
#231 = CLOSED_SHELL ( 'NONE', ( #18, #111, #30, #73, #232, #9, #24 ) ) ;
#232 = ADVANCED_FACE ( 'NONE', ( #112 ), #110, .F. ) ;
#233 = CARTESIAN_POINT ( 'NONE',  ( -4.000000000000000000, 0.000000000000000000, 4.000000000000000000 ) ) ;
#234 = CARTESIAN_POINT ( 'NONE',  ( 0.000000000000000000, 0.000000000000000000, 630.0000000000000000 ) ) ;
#235 = VERTEX_POINT ( 'NONE', #17 ) ;
#236 = PERSON_AND_ORGANIZATION ( #210, #243 ) ;
#237 = APPROVAL_ROLE ( '' ) ;
#238 = DIRECTION ( 'NONE',  ( 1.000000000000000000, 0.000000000000000000, 0.000000000000000000 ) ) ;
#239 = LOCAL_TIME ( 17, 21, 57.00000000000000000, #148 ) ;
#240 = EDGE_LOOP ( 'NONE', ( #242, #8, #43, #72 ) ) ;
#241 = EDGE_CURVE ( 'NONE', #214, #104, #165, .T. ) ;
#242 = ORIENTED_EDGE ( 'NONE', *, *, #121, .F. ) ;
#243 = ORGANIZATION ( 'NEURÈENÝ', 'NEURÈENÝ', '' ) ;
#244 =( NAMED_UNIT ( * ) SI_UNIT ( $, .STERADIAN. ) SOLID_ANGLE_UNIT ( ) );
#245 = DIRECTION ( 'NONE',  ( -0.000000000000000000, -0.000000000000000000, -1.000000000000000000 ) ) ;
#246 = CC_DESIGN_DATE_AND_TIME_ASSIGNMENT ( #25, #23, ( #49 ) ) ;
#247 = CARTESIAN_POINT ( 'NONE',  ( 0.000000000000000000, 0.000000000000000000, 630.0000000000000000 ) ) ;
#248 = VECTOR ( 'NONE', #59, 1000.000000000000000 ) ;
#249 = PRODUCT_DEFINITION_FORMATION_WITH_SPECIFIED_SOURCE ( 'LIBOVOLNÝ', '', #134, .NOT_KNOWN. ) ;
#250 = DIRECTION ( 'NONE',  ( -1.000000000000000000, 0.000000000000000000, 0.000000000000000000 ) ) ;
#251 = PERSON_AND_ORGANIZATION_ROLE ( 'design_owner' ) ;
#252 = ORIENTED_EDGE ( 'NONE', *, *, #182, .F. ) ;
#253 =( NAMED_UNIT ( * ) PLANE_ANGLE_UNIT ( ) SI_UNIT ( $, .RADIAN. ) );
#254 = CALENDAR_DATE ( 2023, 13, 2 ) ;
#255 = LINE ( 'NONE', #233, #248 ) ;
ENDSEC;
END-ISO-10303-21;
