ISO-10303-21;
HEADER;
FILE_DESCRIPTION (( 'STEP AP203' ),
    '1' );
FILE_NAME ('8e40.STEP',
    '2023-02-13T16:54:23',
    ( '' ),
    ( '' ),
    'SwSTEP 2.0',
    'SolidWorks 2019',
    '' );
FILE_SCHEMA (( 'CONFIG_CONTROL_DESIGN' ));
ENDSEC;

DATA;
#1 = CARTESIAN_POINT ( 'NONE',  ( 0.000000000000000000, 0.000000000000000000, 3.000000000000000000 ) ) ;
#2 = CARTESIAN_POINT ( 'NONE',  ( 0.000000000000000000, 0.000000000000000000, 3.000000000000000000 ) ) ;
#3 = DIRECTION ( 'NONE',  ( 0.000000000000000000, 0.000000000000000000, 1.000000000000000000 ) ) ;
#4 = CC_DESIGN_PERSON_AND_ORGANIZATION_ASSIGNMENT ( #5, #91, ( #93 ) ) ;
#5 = PERSON_AND_ORGANIZATION ( #222, #76 ) ;
#6 = AXIS2_PLACEMENT_3D ( 'NONE', #164, #159, #86 ) ;
#7 = CC_DESIGN_DATE_AND_TIME_ASSIGNMENT ( #214, #51, ( #165 ) ) ;
#8 = FACE_OUTER_BOUND ( 'NONE', #31, .T. ) ;
#9 = DIRECTION ( 'NONE',  ( 0.000000000000000000, 0.000000000000000000, 1.000000000000000000 ) ) ;
#10 = DIRECTION ( 'NONE',  ( -0.000000000000000000, -0.000000000000000000, -1.000000000000000000 ) ) ;
#11 = COORDINATED_UNIVERSAL_TIME_OFFSET ( 1, 0, .AHEAD. ) ;
#12 = ORIENTED_EDGE ( 'NONE', *, *, #43, .F. ) ;
#13 = CARTESIAN_POINT ( 'NONE',  ( 3.000000000000000444, 3.673940397442060361E-16, 3.000000000000000000 ) ) ;
#14 = CARTESIAN_POINT ( 'NONE',  ( 0.000000000000000000, 0.000000000000000000, 3.000000000000000000 ) ) ;
#15 = ORIENTED_EDGE ( 'NONE', *, *, #194, .F. ) ;
#16 = CARTESIAN_POINT ( 'NONE',  ( 3.000000000000000444, 3.673940397442060361E-16, 0.000000000000000000 ) ) ;
#17 = CIRCLE ( 'NONE', #166, 3.000000000000000444 ) ;
#18 = EDGE_LOOP ( 'NONE', ( #157, #12, #94, #124 ) ) ;
#19 = CC_DESIGN_PERSON_AND_ORGANIZATION_ASSIGNMENT ( #221, #180, ( #233 ) ) ;
#20 = EDGE_CURVE ( 'NONE', #107, #225, #168, .T. ) ;
#21 = FACE_OUTER_BOUND ( 'NONE', #235, .T. ) ;
#22 = PLANE ( 'NONE',  #69 ) ;
#23 = CIRCLE ( 'NONE', #189, 1.500000000000000222 ) ;
#24 = ADVANCED_FACE ( 'NONE', ( #230 ), #67, .T. ) ;
#25 = CARTESIAN_POINT ( 'NONE',  ( 0.000000000000000000, 0.000000000000000000, 3.000000000000000000 ) ) ;
#26 = CARTESIAN_POINT ( 'NONE',  ( 0.000000000000000000, 0.000000000000000000, 400.0000000000000000 ) ) ;
#27 = CC_DESIGN_PERSON_AND_ORGANIZATION_ASSIGNMENT ( #123, #196, ( #165 ) ) ;
#28 = DIRECTION ( 'NONE',  ( 0.000000000000000000, 0.000000000000000000, 1.000000000000000000 ) ) ;
#29 = CARTESIAN_POINT ( 'NONE',  ( -1.500000000000000222, 0.000000000000000000, 400.0000000000000000 ) ) ;
#30 = PRODUCT_DEFINITION_FORMATION_WITH_SPECIFIED_SOURCE ( 'LIBOVOLNÝ', '', #93, .NOT_KNOWN. ) ;
#31 = EDGE_LOOP ( 'NONE', ( #232, #108, #85, #73 ) ) ;
#32 = PLANE ( 'NONE',  #215 ) ;
#33 = EDGE_LOOP ( 'NONE', ( #105, #66, #249, #78 ) ) ;
#34 = COORDINATED_UNIVERSAL_TIME_OFFSET ( 1, 0, .AHEAD. ) ;
#35 = VERTEX_POINT ( 'NONE', #207 ) ;
#36 = APPROVAL_DATE_TIME ( #247, #185 ) ;
#37 = EDGE_CURVE ( 'NONE', #225, #107, #118, .T. ) ;
#38 = ORIENTED_EDGE ( 'NONE', *, *, #37, .F. ) ;
#39 = DATE_AND_TIME ( #110, #61 ) ;
#40 = PRODUCT_RELATED_PRODUCT_CATEGORY ( 'detail', '', ( #93 ) ) ;
#41 = APPROVAL_ROLE ( '' ) ;
#42 = LOCAL_TIME ( 17, 54, 23.00000000000000000, #11 ) ;
#43 = EDGE_CURVE ( 'NONE', #209, #181, #54, .T. ) ;
#44 = AXIS2_PLACEMENT_3D ( 'NONE', #2, #28, #187 ) ;
#45 = PLANE ( 'NONE',  #111 ) ;
#46 =( GEOMETRIC_REPRESENTATION_CONTEXT ( 3 ) GLOBAL_UNCERTAINTY_ASSIGNED_CONTEXT ( ( #254 ) ) GLOBAL_UNIT_ASSIGNED_CONTEXT ( ( #204, #184, #145 ) ) REPRESENTATION_CONTEXT ( 'NONE', 'WORKASPACE' ) );
#47 = DIRECTION ( 'NONE',  ( 0.000000000000000000, 0.000000000000000000, 1.000000000000000000 ) ) ;
#48 = DIRECTION ( 'NONE',  ( 0.000000000000000000, 0.000000000000000000, 1.000000000000000000 ) ) ;
#49 = CALENDAR_DATE ( 2023, 13, 2 ) ;
#50 = FACE_OUTER_BOUND ( 'NONE', #68, .T. ) ;
#51 = DATE_TIME_ROLE ( 'classification_date' ) ;
#52 = DIRECTION ( 'NONE',  ( -0.000000000000000000, -0.000000000000000000, -1.000000000000000000 ) ) ;
#53 = ORIENTED_EDGE ( 'NONE', *, *, #253, .T. ) ;
#54 = CIRCLE ( 'NONE', #206, 1.500000000000000222 ) ;
#55 = APPROVAL_ROLE ( '' ) ;
#56 = CARTESIAN_POINT ( 'NONE',  ( 1.500000000000000222, 1.836970198721030181E-16, 400.0000000000000000 ) ) ;
#57 = ADVANCED_FACE ( 'NONE', ( #102 ), #116, .T. ) ;
#58 = CARTESIAN_POINT ( 'NONE',  ( -3.000000000000000444, 0.000000000000000000, 3.000000000000000000 ) ) ;
#59 = ADVANCED_FACE ( 'NONE', ( #50 ), #45, .T. ) ;
#60 = CARTESIAN_POINT ( 'NONE',  ( 0.000000000000000000, 0.000000000000000000, 0.000000000000000000 ) ) ;
#61 = LOCAL_TIME ( 17, 54, 23.00000000000000000, #201 ) ;
#62 = CARTESIAN_POINT ( 'NONE',  ( 0.000000000000000000, 0.000000000000000000, 0.000000000000000000 ) ) ;
#63 = CC_DESIGN_PERSON_AND_ORGANIZATION_ASSIGNMENT ( #237, #75, ( #30 ) ) ;
#64 = CARTESIAN_POINT ( 'NONE',  ( -1.500000000000000222, 0.000000000000000000, 3.000000000000000000 ) ) ;
#65 = LOCAL_TIME ( 17, 54, 23.00000000000000000, #34 ) ;
#66 = ORIENTED_EDGE ( 'NONE', *, *, #188, .T. ) ;
#67 = CYLINDRICAL_SURFACE ( 'NONE', #130, 3.000000000000000444 ) ;
#68 = EDGE_LOOP ( 'NONE', ( #88, #197 ) ) ;
#69 = AXIS2_PLACEMENT_3D ( 'NONE', #60, #148, #205 ) ;
#70 = CARTESIAN_POINT ( 'NONE',  ( 0.000000000000000000, 0.000000000000000000, 3.000000000000000000 ) ) ;
#71 = APPROVAL_DATE_TIME ( #156, #169 ) ;
#72 = AXIS2_PLACEMENT_3D ( 'NONE', #179, #52, #195 ) ;
#73 = ORIENTED_EDGE ( 'NONE', *, *, #218, .F. ) ;
#74 = ORIENTED_EDGE ( 'NONE', *, *, #218, .T. ) ;
#75 = PERSON_AND_ORGANIZATION_ROLE ( 'creator' ) ;
#76 = ORGANIZATION ( 'NEURÈENÝ', 'NEURÈENÝ', '' ) ;
#77 = CARTESIAN_POINT ( 'NONE',  ( 0.000000000000000000, 0.000000000000000000, 0.000000000000000000 ) ) ;
#78 = ORIENTED_EDGE ( 'NONE', *, *, #113, .F. ) ;
#79 = CARTESIAN_POINT ( 'NONE',  ( -3.000000000000000444, 0.000000000000000000, 3.000000000000000000 ) ) ;
#80 = EDGE_CURVE ( 'NONE', #213, #245, #17, .T. ) ;
#81 = DIRECTION ( 'NONE',  ( 1.000000000000000000, 0.000000000000000000, 0.000000000000000000 ) ) ;
#82 = DIRECTION ( 'NONE',  ( 1.000000000000000000, 0.000000000000000000, 0.000000000000000000 ) ) ;
#83 = COORDINATED_UNIVERSAL_TIME_OFFSET ( 1, 0, .AHEAD. ) ;
#84 = CARTESIAN_POINT ( 'NONE',  ( 0.000000000000000000, 0.000000000000000000, 400.0000000000000000 ) ) ;
#85 = ORIENTED_EDGE ( 'NONE', *, *, #241, .T. ) ;
#86 = DIRECTION ( 'NONE',  ( 1.000000000000000000, 0.000000000000000000, 0.000000000000000000 ) ) ;
#87 = PERSON_AND_ORGANIZATION ( #222, #76 ) ;
#88 = ORIENTED_EDGE ( 'NONE', *, *, #43, .T. ) ;
#89 = CARTESIAN_POINT ( 'NONE',  ( 1.500000000000000222, 1.836970198721030181E-16, 400.0000000000000000 ) ) ;
#90 = EDGE_LOOP ( 'NONE', ( #177, #155 ) ) ;
#91 = PERSON_AND_ORGANIZATION_ROLE ( 'design_owner' ) ;
#92 = VECTOR ( 'NONE', #100, 1000.000000000000000 ) ;
#93 = PRODUCT ( '8e40', '8e40', '', ( #219 ) ) ;
#94 = ORIENTED_EDGE ( 'NONE', *, *, #113, .T. ) ;
#95 = CC_DESIGN_APPROVAL ( #132, ( #165 ) ) ;
#96 = DIRECTION ( 'NONE',  ( 1.000000000000000000, 0.000000000000000000, 0.000000000000000000 ) ) ;
#97 = CIRCLE ( 'NONE', #109, 3.000000000000000444 ) ;
#98 = DIRECTION ( 'NONE',  ( 0.000000000000000000, 0.000000000000000000, 1.000000000000000000 ) ) ;
#99 = DIRECTION ( 'NONE',  ( 1.000000000000000000, 0.000000000000000000, -0.000000000000000000 ) ) ;
#100 = DIRECTION ( 'NONE',  ( -0.000000000000000000, -0.000000000000000000, -1.000000000000000000 ) ) ;
#101 = APPROVAL_PERSON_ORGANIZATION ( #87, #169, #120 ) ;
#102 = FACE_OUTER_BOUND ( 'NONE', #18, .T. ) ;
#103 = CALENDAR_DATE ( 2023, 13, 2 ) ;
#104 = LINE ( 'NONE', #13, #131 ) ;
#105 = ORIENTED_EDGE ( 'NONE', *, *, #149, .F. ) ;
#106 = ADVANCED_FACE ( 'NONE', ( #231 ), #173, .T. ) ;
#107 = VERTEX_POINT ( 'NONE', #171 ) ;
#108 = ORIENTED_EDGE ( 'NONE', *, *, #194, .T. ) ;
#109 = AXIS2_PLACEMENT_3D ( 'NONE', #129, #147, #186 ) ;
#110 = CALENDAR_DATE ( 2023, 13, 2 ) ;
#111 = AXIS2_PLACEMENT_3D ( 'NONE', #151, #98, #99 ) ;
#112 = SHAPE_DEFINITION_REPRESENTATION ( #248, #238 ) ;
#113 = EDGE_CURVE ( 'NONE', #209, #225, #236, .T. ) ;
#114 = APPROVAL_PERSON_ORGANIZATION ( #162, #185, #55 ) ;
#115 = CLOSED_SHELL ( 'NONE', ( #106, #126, #24, #170, #229, #57, #59 ) ) ;
#116 = CYLINDRICAL_SURFACE ( 'NONE', #252, 1.500000000000000222 ) ;
#117 = DATE_TIME_ROLE ( 'creation_date' ) ;
#118 = CIRCLE ( 'NONE', #44, 1.500000000000000222 ) ;
#119 = DIRECTION ( 'NONE',  ( -1.000000000000000000, 0.000000000000000000, 0.000000000000000000 ) ) ;
#120 = APPROVAL_ROLE ( '' ) ;
#121 = PERSON_AND_ORGANIZATION ( #222, #76 ) ;
#122 = LINE ( 'NONE', #89, #223 ) ;
#123 = PERSON_AND_ORGANIZATION ( #222, #76 ) ;
#124 = ORIENTED_EDGE ( 'NONE', *, *, #37, .T. ) ;
#125 = DIRECTION ( 'NONE',  ( -0.000000000000000000, -0.000000000000000000, -1.000000000000000000 ) ) ;
#126 = ADVANCED_FACE ( 'NONE', ( #8 ), #139, .T. ) ;
#127 = CC_DESIGN_PERSON_AND_ORGANIZATION_ASSIGNMENT ( #244, #134, ( #30 ) ) ;
#128 = CC_DESIGN_SECURITY_CLASSIFICATION ( #165, ( #30 ) ) ;
#129 = CARTESIAN_POINT ( 'NONE',  ( 0.000000000000000000, 0.000000000000000000, 0.000000000000000000 ) ) ;
#130 = AXIS2_PLACEMENT_3D ( 'NONE', #25, #153, #210 ) ;
#131 = VECTOR ( 'NONE', #200, 1000.000000000000000 ) ;
#132 = APPROVAL ( #136, 'NEURÈENÝ' ) ;
#133 = CARTESIAN_POINT ( 'NONE',  ( 0.000000000000000000, 0.000000000000000000, 400.0000000000000000 ) ) ;
#134 = PERSON_AND_ORGANIZATION_ROLE ( 'design_supplier' ) ;
#135 = DIRECTION ( 'NONE',  ( 1.000000000000000000, 0.000000000000000000, -0.000000000000000000 ) ) ;
#136 = APPROVAL_STATUS ( 'not_yet_approved' ) ;
#137 = APPLICATION_CONTEXT ( 'configuration controlled 3d designs of mechanical parts and assemblies' ) ;
#138 = DATE_AND_TIME ( #154, #42 ) ;
#139 = CYLINDRICAL_SURFACE ( 'NONE', #72, 3.000000000000000444 ) ;
#140 = CC_DESIGN_APPROVAL ( #185, ( #233 ) ) ;
#141 = APPROVAL_DATE_TIME ( #39, #132 ) ;
#142 = EDGE_CURVE ( 'NONE', #245, #213, #255, .T. ) ;
#143 = ORIENTED_EDGE ( 'NONE', *, *, #80, .F. ) ;
#144 = FACE_OUTER_BOUND ( 'NONE', #90, .T. ) ;
#145 =( NAMED_UNIT ( * ) SI_UNIT ( $, .STERADIAN. ) SOLID_ANGLE_UNIT ( ) );
#146 = AXIS2_PLACEMENT_3D ( 'NONE', #62, #251, #96 ) ;
#147 = DIRECTION ( 'NONE',  ( 0.000000000000000000, 0.000000000000000000, 1.000000000000000000 ) ) ;
#148 = DIRECTION ( 'NONE',  ( 0.000000000000000000, 0.000000000000000000, 1.000000000000000000 ) ) ;
#149 = EDGE_CURVE ( 'NONE', #181, #209, #23, .T. ) ;
#150 = LOCAL_TIME ( 17, 54, 23.00000000000000000, #83 ) ;
#151 = CARTESIAN_POINT ( 'NONE',  ( 0.000000000000000000, 0.000000000000000000, 400.0000000000000000 ) ) ;
#152 = DIRECTION ( 'NONE',  ( 1.000000000000000000, 0.000000000000000000, 0.000000000000000000 ) ) ;
#153 = DIRECTION ( 'NONE',  ( -0.000000000000000000, -0.000000000000000000, -1.000000000000000000 ) ) ;
#154 = CALENDAR_DATE ( 2023, 13, 2 ) ;
#155 = ORIENTED_EDGE ( 'NONE', *, *, #142, .T. ) ;
#156 = DATE_AND_TIME ( #211, #203 ) ;
#157 = ORIENTED_EDGE ( 'NONE', *, *, #188, .F. ) ;
#158 = AXIS2_PLACEMENT_3D ( 'NONE', #77, #9, #160 ) ;
#159 = DIRECTION ( 'NONE',  ( 0.000000000000000000, 0.000000000000000000, 1.000000000000000000 ) ) ;
#160 = DIRECTION ( 'NONE',  ( 1.000000000000000000, 0.000000000000000000, 0.000000000000000000 ) ) ;
#161 = ORIENTED_EDGE ( 'NONE', *, *, #20, .F. ) ;
#162 = PERSON_AND_ORGANIZATION ( #222, #76 ) ;
#163 = CARTESIAN_POINT ( 'NONE',  ( -1.500000000000000222, 0.000000000000000000, 400.0000000000000000 ) ) ;
#164 = CARTESIAN_POINT ( 'NONE',  ( 0.000000000000000000, 0.000000000000000000, 3.000000000000000000 ) ) ;
#165 = SECURITY_CLASSIFICATION ( '', '', #217 ) ;
#166 = AXIS2_PLACEMENT_3D ( 'NONE', #1, #3, #152 ) ;
#167 = CARTESIAN_POINT ( 'NONE',  ( 3.000000000000000444, 3.673940397442060361E-16, 3.000000000000000000 ) ) ;
#168 = CIRCLE ( 'NONE', #246, 1.500000000000000222 ) ;
#169 = APPROVAL ( #234, 'NEURÈENÝ' ) ;
#170 = ADVANCED_FACE ( 'NONE', ( #198, #144 ), #32, .T. ) ;
#171 = CARTESIAN_POINT ( 'NONE',  ( 1.500000000000000222, 1.836970198721030181E-16, 3.000000000000000000 ) ) ;
#172 = CC_DESIGN_APPROVAL ( #169, ( #30 ) ) ;
#173 = CYLINDRICAL_SURFACE ( 'NONE', #228, 1.500000000000000222 ) ;
#174 = APPROVAL_STATUS ( 'not_yet_approved' ) ;
#175 = LINE ( 'NONE', #58, #226 ) ;
#176 = APPLICATION_PROTOCOL_DEFINITION ( 'international standard', 'config_control_design', 1994, #137 ) ;
#177 = ORIENTED_EDGE ( 'NONE', *, *, #80, .T. ) ;
#178 = DIRECTION ( 'NONE',  ( 0.000000000000000000, 0.000000000000000000, 1.000000000000000000 ) ) ;
#179 = CARTESIAN_POINT ( 'NONE',  ( 0.000000000000000000, 0.000000000000000000, 3.000000000000000000 ) ) ;
#180 = PERSON_AND_ORGANIZATION_ROLE ( 'creator' ) ;
#181 = VERTEX_POINT ( 'NONE', #56 ) ;
#182 = ORIENTED_EDGE ( 'NONE', *, *, #241, .F. ) ;
#183 = CIRCLE ( 'NONE', #146, 3.000000000000000444 ) ;
#184 =( NAMED_UNIT ( * ) PLANE_ANGLE_UNIT ( ) SI_UNIT ( $, .RADIAN. ) );
#185 = APPROVAL ( #174, 'NEURÈENÝ' ) ;
#186 = DIRECTION ( 'NONE',  ( 1.000000000000000000, 0.000000000000000000, 0.000000000000000000 ) ) ;
#187 = DIRECTION ( 'NONE',  ( 1.000000000000000000, 0.000000000000000000, 0.000000000000000000 ) ) ;
#188 = EDGE_CURVE ( 'NONE', #181, #107, #122, .T. ) ;
#189 = AXIS2_PLACEMENT_3D ( 'NONE', #243, #224, #220 ) ;
#190 = EDGE_LOOP ( 'NONE', ( #38, #161 ) ) ;
#191 = DIRECTION ( 'NONE',  ( -0.000000000000000000, -0.000000000000000000, -1.000000000000000000 ) ) ;
#192 = DIRECTION ( 'NONE',  ( -1.000000000000000000, 0.000000000000000000, 0.000000000000000000 ) ) ;
#193 = APPLICATION_PROTOCOL_DEFINITION ( 'international standard', 'config_control_design', 1994, #242 ) ;
#194 = EDGE_CURVE ( 'NONE', #245, #202, #104, .T. ) ;
#195 = DIRECTION ( 'NONE',  ( -1.000000000000000000, 0.000000000000000000, 0.000000000000000000 ) ) ;
#196 = PERSON_AND_ORGANIZATION_ROLE ( 'classification_officer' ) ;
#197 = ORIENTED_EDGE ( 'NONE', *, *, #149, .T. ) ;
#198 = FACE_BOUND ( 'NONE', #190, .T. ) ;
#199 = MANIFOLD_SOLID_BREP ( 'Pøidat vysunutím3', #115 ) ;
#200 = DIRECTION ( 'NONE',  ( -0.000000000000000000, -0.000000000000000000, -1.000000000000000000 ) ) ;
#201 = COORDINATED_UNIVERSAL_TIME_OFFSET ( 1, 0, .AHEAD. ) ;
#202 = VERTEX_POINT ( 'NONE', #16 ) ;
#203 = LOCAL_TIME ( 17, 54, 23.00000000000000000, #239 ) ;
#204 =( LENGTH_UNIT ( ) NAMED_UNIT ( * ) SI_UNIT ( .MILLI., .METRE. ) );
#205 = DIRECTION ( 'NONE',  ( 1.000000000000000000, 0.000000000000000000, -0.000000000000000000 ) ) ;
#206 = AXIS2_PLACEMENT_3D ( 'NONE', #133, #48, #82 ) ;
#207 = CARTESIAN_POINT ( 'NONE',  ( -3.000000000000000444, 0.000000000000000000, 0.000000000000000000 ) ) ;
#208 = DIRECTION ( 'NONE',  ( -0.000000000000000000, -0.000000000000000000, -1.000000000000000000 ) ) ;
#209 = VERTEX_POINT ( 'NONE', #163 ) ;
#210 = DIRECTION ( 'NONE',  ( -1.000000000000000000, 0.000000000000000000, 0.000000000000000000 ) ) ;
#211 = CALENDAR_DATE ( 2023, 13, 2 ) ;
#212 = CC_DESIGN_DATE_AND_TIME_ASSIGNMENT ( #138, #117, ( #233 ) ) ;
#213 = VERTEX_POINT ( 'NONE', #79 ) ;
#214 = DATE_AND_TIME ( #49, #65 ) ;
#215 = AXIS2_PLACEMENT_3D ( 'NONE', #14, #178, #135 ) ;
#216 = ORIENTED_EDGE ( 'NONE', *, *, #253, .F. ) ;
#217 = SECURITY_CLASSIFICATION_LEVEL ( 'unclassified' ) ;
#218 = EDGE_CURVE ( 'NONE', #213, #35, #175, .T. ) ;
#219 = MECHANICAL_CONTEXT ( 'NONE', #137, 'mechanical' ) ;
#220 = DIRECTION ( 'NONE',  ( 1.000000000000000000, 0.000000000000000000, 0.000000000000000000 ) ) ;
#221 = PERSON_AND_ORGANIZATION ( #222, #76 ) ;
#222 = PERSON ( 'NEURÈENÝ', 'NEURÈENÝ', 'NEURÈENÝ', ('NEURÈENÝ'), ('NEURÈENÝ'), ('NEURÈENÝ') ) ;
#223 = VECTOR ( 'NONE', #125, 1000.000000000000000 ) ;
#224 = DIRECTION ( 'NONE',  ( 0.000000000000000000, 0.000000000000000000, 1.000000000000000000 ) ) ;
#225 = VERTEX_POINT ( 'NONE', #64 ) ;
#226 = VECTOR ( 'NONE', #10, 1000.000000000000000 ) ;
#227 = DESIGN_CONTEXT ( 'detailed design', #242, 'design' ) ;
#228 = AXIS2_PLACEMENT_3D ( 'NONE', #84, #191, #192 ) ;
#229 = ADVANCED_FACE ( 'NONE', ( #21 ), #22, .F. ) ;
#230 = FACE_OUTER_BOUND ( 'NONE', #250, .T. ) ;
#231 = FACE_OUTER_BOUND ( 'NONE', #33, .T. ) ;
#232 = ORIENTED_EDGE ( 'NONE', *, *, #142, .F. ) ;
#233 = PRODUCT_DEFINITION ( 'NEZNÁMÝ', '', #30, #227 ) ;
#234 = APPROVAL_STATUS ( 'not_yet_approved' ) ;
#235 = EDGE_LOOP ( 'NONE', ( #216, #182 ) ) ;
#236 = LINE ( 'NONE', #29, #92 ) ;
#237 = PERSON_AND_ORGANIZATION ( #222, #76 ) ;
#238 = ADVANCED_BREP_SHAPE_REPRESENTATION ( '8e40', ( #199, #158 ), #46 ) ;
#239 = COORDINATED_UNIVERSAL_TIME_OFFSET ( 1, 0, .AHEAD. ) ;
#240 = APPROVAL_PERSON_ORGANIZATION ( #121, #132, #41 ) ;
#241 = EDGE_CURVE ( 'NONE', #202, #35, #183, .T. ) ;
#242 = APPLICATION_CONTEXT ( 'configuration controlled 3d designs of mechanical parts and assemblies' ) ;
#243 = CARTESIAN_POINT ( 'NONE',  ( 0.000000000000000000, 0.000000000000000000, 400.0000000000000000 ) ) ;
#244 = PERSON_AND_ORGANIZATION ( #222, #76 ) ;
#245 = VERTEX_POINT ( 'NONE', #167 ) ;
#246 = AXIS2_PLACEMENT_3D ( 'NONE', #70, #47, #81 ) ;
#247 = DATE_AND_TIME ( #103, #150 ) ;
#248 = PRODUCT_DEFINITION_SHAPE ( 'NONE', 'NONE',  #233 ) ;
#249 = ORIENTED_EDGE ( 'NONE', *, *, #20, .T. ) ;
#250 = EDGE_LOOP ( 'NONE', ( #15, #143, #74, #53 ) ) ;
#251 = DIRECTION ( 'NONE',  ( 0.000000000000000000, 0.000000000000000000, 1.000000000000000000 ) ) ;
#252 = AXIS2_PLACEMENT_3D ( 'NONE', #26, #208, #119 ) ;
#253 = EDGE_CURVE ( 'NONE', #35, #202, #97, .T. ) ;
#254 = UNCERTAINTY_MEASURE_WITH_UNIT (LENGTH_MEASURE( 1.000000000000000082E-05 ), #204, 'distance_accuracy_value', 'NONE');
#255 = CIRCLE ( 'NONE', #6, 3.000000000000000444 ) ;
ENDSEC;
END-ISO-10303-21;
