ISO-10303-21;
HEADER;
FILE_DESCRIPTION (( 'STEP AP203' ),
    '1' );
FILE_NAME ('e022.STEP',
    '2023-02-13T12:23:23',
    ( '' ),
    ( '' ),
    'SwSTEP 2.0',
    'SolidWorks 2019',
    '' );
FILE_SCHEMA (( 'CONFIG_CONTROL_DESIGN' ));
ENDSEC;

DATA;
#1 = CLOSED_SHELL ( 'NONE', ( #139, #201, #97, #185, #243, #226, #6 ) ) ;
#2 = ORIENTED_EDGE ( 'NONE', *, *, #216, .T. ) ;
#3 = FACE_BOUND ( 'NONE', #169, .T. ) ;
#4 = CYLINDRICAL_SURFACE ( 'NONE', #170, 5.100000000000001421 ) ;
#5 = CC_DESIGN_APPROVAL ( #198, ( #121 ) ) ;
#6 = ADVANCED_FACE ( 'NONE', ( #209 ), #8, .T. ) ;
#7 = CARTESIAN_POINT ( 'NONE',  ( -5.100000000000001421, 0.000000000000000000, 1000.000000000000000 ) ) ;
#8 = PLANE ( 'NONE',  #155 ) ;
#9 =( GEOMETRIC_REPRESENTATION_CONTEXT ( 3 ) GLOBAL_UNCERTAINTY_ASSIGNED_CONTEXT ( ( #118 ) ) GLOBAL_UNIT_ASSIGNED_CONTEXT ( ( #187, #88, #184 ) ) REPRESENTATION_CONTEXT ( 'NONE', 'WORKASPACE' ) );
#10 = CARTESIAN_POINT ( 'NONE',  ( -8.000000000000000000, 0.000000000000000000, 6.500000000000000000 ) ) ;
#11 = MANIFOLD_SOLID_BREP ( 'Pøidat vysunutím3', #1 ) ;
#12 = DATE_AND_TIME ( #50, #215 ) ;
#13 = EDGE_CURVE ( 'NONE', #29, #161, #117, .T. ) ;
#14 = CIRCLE ( 'NONE', #166, 8.000000000000000000 ) ;
#15 = CALENDAR_DATE ( 2023, 13, 2 ) ;
#16 = CARTESIAN_POINT ( 'NONE',  ( 0.000000000000000000, 0.000000000000000000, 1000.000000000000000 ) ) ;
#17 = PERSON_AND_ORGANIZATION ( #104, #86 ) ;
#18 = CARTESIAN_POINT ( 'NONE',  ( 0.000000000000000000, 0.000000000000000000, 0.000000000000000000 ) ) ;
#19 = CARTESIAN_POINT ( 'NONE',  ( 0.000000000000000000, 0.000000000000000000, 6.500000000000000000 ) ) ;
#20 = AXIS2_PLACEMENT_3D ( 'NONE', #41, #106, #112 ) ;
#21 = CALENDAR_DATE ( 2023, 13, 2 ) ;
#22 = DIRECTION ( 'NONE',  ( -1.000000000000000000, 0.000000000000000000, 0.000000000000000000 ) ) ;
#23 = ORIENTED_EDGE ( 'NONE', *, *, #87, .F. ) ;
#24 = FACE_OUTER_BOUND ( 'NONE', #68, .T. ) ;
#25 = ORIENTED_EDGE ( 'NONE', *, *, #47, .F. ) ;
#26 = CARTESIAN_POINT ( 'NONE',  ( 0.000000000000000000, 0.000000000000000000, 0.000000000000000000 ) ) ;
#27 = VERTEX_POINT ( 'NONE', #10 ) ;
#28 = PRODUCT_RELATED_PRODUCT_CATEGORY ( 'detail', '', ( #176 ) ) ;
#29 = VERTEX_POINT ( 'NONE', #75 ) ;
#30 = AXIS2_PLACEMENT_3D ( 'NONE', #18, #100, #200 ) ;
#31 = DIRECTION ( 'NONE',  ( 0.000000000000000000, 0.000000000000000000, 1.000000000000000000 ) ) ;
#32 = EDGE_LOOP ( 'NONE', ( #165, #25, #238, #82 ) ) ;
#33 = DIRECTION ( 'NONE',  ( -0.000000000000000000, -0.000000000000000000, -1.000000000000000000 ) ) ;
#34 = DATE_AND_TIME ( #15, #236 ) ;
#35 = CIRCLE ( 'NONE', #70, 5.100000000000001421 ) ;
#36 = CARTESIAN_POINT ( 'NONE',  ( -8.000000000000000000, 0.000000000000000000, 6.500000000000000000 ) ) ;
#37 = CYLINDRICAL_SURFACE ( 'NONE', #111, 5.100000000000001421 ) ;
#38 = APPROVAL_PERSON_ORGANIZATION ( #17, #193, #230 ) ;
#39 = EDGE_CURVE ( 'NONE', #29, #146, #95, .T. ) ;
#40 = DIRECTION ( 'NONE',  ( -0.000000000000000000, -0.000000000000000000, -1.000000000000000000 ) ) ;
#41 = CARTESIAN_POINT ( 'NONE',  ( 0.000000000000000000, 0.000000000000000000, 0.000000000000000000 ) ) ;
#42 = ORIENTED_EDGE ( 'NONE', *, *, #58, .F. ) ;
#43 = EDGE_CURVE ( 'NONE', #146, #51, #137, .T. ) ;
#44 = EDGE_LOOP ( 'NONE', ( #107, #120 ) ) ;
#45 = ORIENTED_EDGE ( 'NONE', *, *, #248, .F. ) ;
#46 = AXIS2_PLACEMENT_3D ( 'NONE', #151, #31, #254 ) ;
#47 = EDGE_CURVE ( 'NONE', #146, #29, #135, .T. ) ;
#48 = LOCAL_TIME ( 13, 23, 23.00000000000000000, #212 ) ;
#49 = DIRECTION ( 'NONE',  ( 1.000000000000000000, 0.000000000000000000, 0.000000000000000000 ) ) ;
#50 = CALENDAR_DATE ( 2023, 13, 2 ) ;
#51 = VERTEX_POINT ( 'NONE', #246 ) ;
#52 = PERSON_AND_ORGANIZATION ( #104, #86 ) ;
#53 = DIRECTION ( 'NONE',  ( -0.000000000000000000, -0.000000000000000000, -1.000000000000000000 ) ) ;
#54 = PERSON_AND_ORGANIZATION_ROLE ( 'design_supplier' ) ;
#55 = APPROVAL_PERSON_ORGANIZATION ( #172, #198, #207 ) ;
#56 = LINE ( 'NONE', #251, #180 ) ;
#57 = APPROVAL_STATUS ( 'not_yet_approved' ) ;
#58 = EDGE_CURVE ( 'NONE', #27, #182, #14, .T. ) ;
#59 = SECURITY_CLASSIFICATION ( '', '', #213 ) ;
#60 = DIRECTION ( 'NONE',  ( -0.000000000000000000, -0.000000000000000000, -1.000000000000000000 ) ) ;
#61 = DIRECTION ( 'NONE',  ( 0.000000000000000000, 0.000000000000000000, 1.000000000000000000 ) ) ;
#62 = ORIENTED_EDGE ( 'NONE', *, *, #232, .F. ) ;
#63 = CC_DESIGN_PERSON_AND_ORGANIZATION_ASSIGNMENT ( #178, #158, ( #59 ) ) ;
#64 = FACE_OUTER_BOUND ( 'NONE', #44, .T. ) ;
#65 = ORIENTED_EDGE ( 'NONE', *, *, #13, .T. ) ;
#66 = CARTESIAN_POINT ( 'NONE',  ( -8.000000000000000000, 0.000000000000000000, 0.000000000000000000 ) ) ;
#67 = DIRECTION ( 'NONE',  ( 1.000000000000000000, 0.000000000000000000, -0.000000000000000000 ) ) ;
#68 = EDGE_LOOP ( 'NONE', ( #45, #171 ) ) ;
#69 = DIRECTION ( 'NONE',  ( 1.000000000000000000, 0.000000000000000000, 0.000000000000000000 ) ) ;
#70 = AXIS2_PLACEMENT_3D ( 'NONE', #144, #222, #131 ) ;
#71 = CC_DESIGN_DATE_AND_TIME_ASSIGNMENT ( #34, #227, ( #59 ) ) ;
#72 = COORDINATED_UNIVERSAL_TIME_OFFSET ( 1, 0, .AHEAD. ) ;
#73 = DESIGN_CONTEXT ( 'detailed design', #229, 'design' ) ;
#74 = CALENDAR_DATE ( 2023, 13, 2 ) ;
#75 = CARTESIAN_POINT ( 'NONE',  ( 5.100000000000001421, 6.245698675651502811E-16, 1000.000000000000000 ) ) ;
#76 = ADVANCED_BREP_SHAPE_REPRESENTATION ( 'e022', ( #11, #199 ), #9 ) ;
#77 = APPLICATION_CONTEXT ( 'configuration controlled 3d designs of mechanical parts and assemblies' ) ;
#78 = DATE_AND_TIME ( #74, #48 ) ;
#79 = DIRECTION ( 'NONE',  ( -1.000000000000000000, 0.000000000000000000, 0.000000000000000000 ) ) ;
#80 = PRODUCT_DEFINITION_FORMATION_WITH_SPECIFIED_SOURCE ( 'LIBOVOLNÝ', '', #176, .NOT_KNOWN. ) ;
#81 = CC_DESIGN_PERSON_AND_ORGANIZATION_ASSIGNMENT ( #156, #54, ( #80 ) ) ;
#82 = ORIENTED_EDGE ( 'NONE', *, *, #87, .T. ) ;
#83 = DIRECTION ( 'NONE',  ( 0.000000000000000000, 0.000000000000000000, 1.000000000000000000 ) ) ;
#84 = CARTESIAN_POINT ( 'NONE',  ( 0.000000000000000000, 0.000000000000000000, 0.000000000000000000 ) ) ;
#85 = DIRECTION ( 'NONE',  ( -1.000000000000000000, 0.000000000000000000, 0.000000000000000000 ) ) ;
#86 = ORGANIZATION ( 'NEURÈENÝ', 'NEURÈENÝ', '' ) ;
#87 = EDGE_CURVE ( 'NONE', #51, #161, #252, .T. ) ;
#88 =( NAMED_UNIT ( * ) PLANE_ANGLE_UNIT ( ) SI_UNIT ( $, .RADIAN. ) );
#89 = DIRECTION ( 'NONE',  ( -0.000000000000000000, -0.000000000000000000, -1.000000000000000000 ) ) ;
#90 = ORIENTED_EDGE ( 'NONE', *, *, #47, .T. ) ;
#91 = CC_DESIGN_APPROVAL ( #193, ( #59 ) ) ;
#92 = APPLICATION_PROTOCOL_DEFINITION ( 'international standard', 'config_control_design', 1994, #229 ) ;
#93 = CARTESIAN_POINT ( 'NONE',  ( 5.100000000000001421, 6.245698675651502811E-16, 1000.000000000000000 ) ) ;
#94 = ORIENTED_EDGE ( 'NONE', *, *, #127, .T. ) ;
#95 = CIRCLE ( 'NONE', #160, 5.100000000000001421 ) ;
#96 = ORIENTED_EDGE ( 'NONE', *, *, #39, .T. ) ;
#97 = ADVANCED_FACE ( 'NONE', ( #98 ), #235, .T. ) ;
#98 = FACE_OUTER_BOUND ( 'NONE', #220, .T. ) ;
#99 = APPROVAL_ROLE ( '' ) ;
#100 = DIRECTION ( 'NONE',  ( 0.000000000000000000, 0.000000000000000000, 1.000000000000000000 ) ) ;
#101 = DATE_AND_TIME ( #21, #138 ) ;
#102 = APPLICATION_PROTOCOL_DEFINITION ( 'international standard', 'config_control_design', 1994, #77 ) ;
#103 = CIRCLE ( 'NONE', #30, 8.000000000000000000 ) ;
#104 = PERSON ( 'NEURÈENÝ', 'NEURÈENÝ', 'NEURÈENÝ', ('NEURÈENÝ'), ('NEURÈENÝ'), ('NEURÈENÝ') ) ;
#105 = LOCAL_TIME ( 13, 23, 23.00000000000000000, #253 ) ;
#106 = DIRECTION ( 'NONE',  ( 0.000000000000000000, 0.000000000000000000, 1.000000000000000000 ) ) ;
#107 = ORIENTED_EDGE ( 'NONE', *, *, #58, .T. ) ;
#108 = ORIENTED_EDGE ( 'NONE', *, *, #127, .F. ) ;
#109 = CYLINDRICAL_SURFACE ( 'NONE', #119, 8.000000000000000000 ) ;
#110 = ORIENTED_EDGE ( 'NONE', *, *, #175, .F. ) ;
#111 = AXIS2_PLACEMENT_3D ( 'NONE', #16, #33, #125 ) ;
#112 = DIRECTION ( 'NONE',  ( 1.000000000000000000, 0.000000000000000000, 0.000000000000000000 ) ) ;
#113 = PERSON_AND_ORGANIZATION_ROLE ( 'creator' ) ;
#114 = CC_DESIGN_PERSON_AND_ORGANIZATION_ASSIGNMENT ( #194, #113, ( #121 ) ) ;
#115 = VECTOR ( 'NONE', #89, 1000.000000000000000 ) ;
#116 = PERSON_AND_ORGANIZATION_ROLE ( 'design_owner' ) ;
#117 = LINE ( 'NONE', #93, #148 ) ;
#118 = UNCERTAINTY_MEASURE_WITH_UNIT (LENGTH_MEASURE( 1.000000000000000082E-05 ), #187, 'distance_accuracy_value', 'NONE');
#119 = AXIS2_PLACEMENT_3D ( 'NONE', #188, #221, #22 ) ;
#120 = ORIENTED_EDGE ( 'NONE', *, *, #232, .T. ) ;
#121 = PRODUCT_DEFINITION ( 'NEZNÁMÝ', '', #80, #73 ) ;
#122 = DATE_AND_TIME ( #196, #105 ) ;
#123 = PERSON_AND_ORGANIZATION ( #104, #86 ) ;
#124 = CC_DESIGN_PERSON_AND_ORGANIZATION_ASSIGNMENT ( #123, #181, ( #80 ) ) ;
#125 = DIRECTION ( 'NONE',  ( -1.000000000000000000, 0.000000000000000000, 0.000000000000000000 ) ) ;
#126 = DIRECTION ( 'NONE',  ( 1.000000000000000000, 0.000000000000000000, 0.000000000000000000 ) ) ;
#127 = EDGE_CURVE ( 'NONE', #27, #240, #233, .T. ) ;
#128 = EDGE_LOOP ( 'NONE', ( #218, #65, #2, #174 ) ) ;
#129 = VERTEX_POINT ( 'NONE', #197 ) ;
#130 = FACE_OUTER_BOUND ( 'NONE', #32, .T. ) ;
#131 = DIRECTION ( 'NONE',  ( 1.000000000000000000, 0.000000000000000000, 0.000000000000000000 ) ) ;
#132 = CC_DESIGN_DATE_AND_TIME_ASSIGNMENT ( #101, #152, ( #121 ) ) ;
#133 = ORIENTED_EDGE ( 'NONE', *, *, #248, .T. ) ;
#134 = CARTESIAN_POINT ( 'NONE',  ( 0.000000000000000000, 0.000000000000000000, 1000.000000000000000 ) ) ;
#135 = CIRCLE ( 'NONE', #234, 5.100000000000001421 ) ;
#136 = DIRECTION ( 'NONE',  ( 0.000000000000000000, 0.000000000000000000, 1.000000000000000000 ) ) ;
#137 = LINE ( 'NONE', #7, #115 ) ;
#138 = LOCAL_TIME ( 13, 23, 23.00000000000000000, #224 ) ;
#139 = ADVANCED_FACE ( 'NONE', ( #214 ), #37, .T. ) ;
#140 = APPROVAL_DATE_TIME ( #78, #193 ) ;
#141 = APPROVAL_DATE_TIME ( #122, #164 ) ;
#142 = CARTESIAN_POINT ( 'NONE',  ( 8.000000000000000000, 9.797174393178823685E-16, 6.500000000000000000 ) ) ;
#143 = SHAPE_DEFINITION_REPRESENTATION ( #223, #76 ) ;
#144 = CARTESIAN_POINT ( 'NONE',  ( 0.000000000000000000, 0.000000000000000000, 6.500000000000000000 ) ) ;
#145 = EDGE_LOOP ( 'NONE', ( #90, #96 ) ) ;
#146 = VERTEX_POINT ( 'NONE', #228 ) ;
#147 = ORIENTED_EDGE ( 'NONE', *, *, #216, .F. ) ;
#148 = VECTOR ( 'NONE', #53, 1000.000000000000000 ) ;
#149 = PERSON_AND_ORGANIZATION ( #104, #86 ) ;
#150 = CARTESIAN_POINT ( 'NONE',  ( 0.000000000000000000, 0.000000000000000000, 6.500000000000000000 ) ) ;
#151 = CARTESIAN_POINT ( 'NONE',  ( 0.000000000000000000, 0.000000000000000000, 6.500000000000000000 ) ) ;
#152 = DATE_TIME_ROLE ( 'creation_date' ) ;
#153 = CARTESIAN_POINT ( 'NONE',  ( 0.000000000000000000, 0.000000000000000000, 1000.000000000000000 ) ) ;
#154 = DIRECTION ( 'NONE',  ( -0.000000000000000000, -0.000000000000000000, -1.000000000000000000 ) ) ;
#155 = AXIS2_PLACEMENT_3D ( 'NONE', #134, #208, #250 ) ;
#156 = PERSON_AND_ORGANIZATION ( #104, #86 ) ;
#157 = DIRECTION ( 'NONE',  ( -0.000000000000000000, -0.000000000000000000, -1.000000000000000000 ) ) ;
#158 = PERSON_AND_ORGANIZATION_ROLE ( 'classification_officer' ) ;
#159 = EDGE_CURVE ( 'NONE', #129, #240, #103, .T. ) ;
#160 = AXIS2_PLACEMENT_3D ( 'NONE', #153, #136, #173 ) ;
#161 = VERTEX_POINT ( 'NONE', #177 ) ;
#162 = DIRECTION ( 'NONE',  ( 1.000000000000000000, 0.000000000000000000, 0.000000000000000000 ) ) ;
#163 = ORIENTED_EDGE ( 'NONE', *, *, #159, .T. ) ;
#164 = APPROVAL ( #179, 'NEURÈENÝ' ) ;
#165 = ORIENTED_EDGE ( 'NONE', *, *, #13, .F. ) ;
#166 = AXIS2_PLACEMENT_3D ( 'NONE', #150, #225, #49 ) ;
#167 = DIRECTION ( 'NONE',  ( 1.000000000000000000, 0.000000000000000000, -0.000000000000000000 ) ) ;
#168 = ORIENTED_EDGE ( 'NONE', *, *, #175, .T. ) ;
#169 = EDGE_LOOP ( 'NONE', ( #23, #147 ) ) ;
#170 = AXIS2_PLACEMENT_3D ( 'NONE', #242, #40, #85 ) ;
#171 = ORIENTED_EDGE ( 'NONE', *, *, #159, .F. ) ;
#172 = PERSON_AND_ORGANIZATION ( #104, #86 ) ;
#173 = DIRECTION ( 'NONE',  ( 1.000000000000000000, 0.000000000000000000, 0.000000000000000000 ) ) ;
#174 = ORIENTED_EDGE ( 'NONE', *, *, #43, .F. ) ;
#175 = EDGE_CURVE ( 'NONE', #182, #129, #56, .T. ) ;
#176 = PRODUCT ( 'e022', 'e022', '', ( #239 ) ) ;
#177 = CARTESIAN_POINT ( 'NONE',  ( 5.100000000000001421, 6.245698675651502811E-16, 6.500000000000000000 ) ) ;
#178 = PERSON_AND_ORGANIZATION ( #104, #86 ) ;
#179 = APPROVAL_STATUS ( 'not_yet_approved' ) ;
#180 = VECTOR ( 'NONE', #154, 1000.000000000000000 ) ;
#181 = PERSON_AND_ORGANIZATION_ROLE ( 'creator' ) ;
#182 = VERTEX_POINT ( 'NONE', #142 ) ;
#183 = AXIS2_PLACEMENT_3D ( 'NONE', #237, #61, #167 ) ;
#184 =( NAMED_UNIT ( * ) SI_UNIT ( $, .STERADIAN. ) SOLID_ANGLE_UNIT ( ) );
#185 = ADVANCED_FACE ( 'NONE', ( #3, #64 ), #202, .T. ) ;
#186 = EDGE_LOOP ( 'NONE', ( #62, #168, #163, #108 ) ) ;
#187 =( LENGTH_UNIT ( ) NAMED_UNIT ( * ) SI_UNIT ( .MILLI., .METRE. ) );
#188 = CARTESIAN_POINT ( 'NONE',  ( 0.000000000000000000, 0.000000000000000000, 6.500000000000000000 ) ) ;
#189 = VECTOR ( 'NONE', #157, 1000.000000000000000 ) ;
#190 = CIRCLE ( 'NONE', #20, 8.000000000000000000 ) ;
#191 = DIRECTION ( 'NONE',  ( 0.000000000000000000, 0.000000000000000000, 1.000000000000000000 ) ) ;
#192 = AXIS2_PLACEMENT_3D ( 'NONE', #204, #241, #126 ) ;
#193 = APPROVAL ( #57, 'NEURÈENÝ' ) ;
#194 = PERSON_AND_ORGANIZATION ( #104, #86 ) ;
#195 = COORDINATED_UNIVERSAL_TIME_OFFSET ( 1, 0, .AHEAD. ) ;
#196 = CALENDAR_DATE ( 2023, 13, 2 ) ;
#197 = CARTESIAN_POINT ( 'NONE',  ( 8.000000000000000000, 9.797174393178823685E-16, 0.000000000000000000 ) ) ;
#198 = APPROVAL ( #247, 'NEURÈENÝ' ) ;
#199 = AXIS2_PLACEMENT_3D ( 'NONE', #84, #83, #162 ) ;
#200 = DIRECTION ( 'NONE',  ( 1.000000000000000000, 0.000000000000000000, 0.000000000000000000 ) ) ;
#201 = ADVANCED_FACE ( 'NONE', ( #217 ), #109, .T. ) ;
#202 = PLANE ( 'NONE',  #183 ) ;
#203 = CC_DESIGN_APPROVAL ( #164, ( #80 ) ) ;
#204 = CARTESIAN_POINT ( 'NONE',  ( 0.000000000000000000, 0.000000000000000000, 6.500000000000000000 ) ) ;
#205 = DIRECTION ( 'NONE',  ( 0.000000000000000000, 0.000000000000000000, 1.000000000000000000 ) ) ;
#206 = CC_DESIGN_PERSON_AND_ORGANIZATION_ASSIGNMENT ( #149, #116, ( #176 ) ) ;
#207 = APPROVAL_ROLE ( '' ) ;
#208 = DIRECTION ( 'NONE',  ( 0.000000000000000000, 0.000000000000000000, 1.000000000000000000 ) ) ;
#209 = FACE_OUTER_BOUND ( 'NONE', #145, .T. ) ;
#210 = APPROVAL_DATE_TIME ( #12, #198 ) ;
#211 = CIRCLE ( 'NONE', #192, 8.000000000000000000 ) ;
#212 = COORDINATED_UNIVERSAL_TIME_OFFSET ( 1, 0, .AHEAD. ) ;
#213 = SECURITY_CLASSIFICATION_LEVEL ( 'unclassified' ) ;
#214 = FACE_OUTER_BOUND ( 'NONE', #128, .T. ) ;
#215 = LOCAL_TIME ( 13, 23, 23.00000000000000000, #72 ) ;
#216 = EDGE_CURVE ( 'NONE', #161, #51, #35, .T. ) ;
#217 = FACE_OUTER_BOUND ( 'NONE', #186, .T. ) ;
#218 = ORIENTED_EDGE ( 'NONE', *, *, #39, .F. ) ;
#219 = PLANE ( 'NONE',  #255 ) ;
#220 = EDGE_LOOP ( 'NONE', ( #110, #42, #94, #133 ) ) ;
#221 = DIRECTION ( 'NONE',  ( -0.000000000000000000, -0.000000000000000000, -1.000000000000000000 ) ) ;
#222 = DIRECTION ( 'NONE',  ( 0.000000000000000000, 0.000000000000000000, 1.000000000000000000 ) ) ;
#223 = PRODUCT_DEFINITION_SHAPE ( 'NONE', 'NONE',  #121 ) ;
#224 = COORDINATED_UNIVERSAL_TIME_OFFSET ( 1, 0, .AHEAD. ) ;
#225 = DIRECTION ( 'NONE',  ( 0.000000000000000000, 0.000000000000000000, 1.000000000000000000 ) ) ;
#226 = ADVANCED_FACE ( 'NONE', ( #130 ), #4, .T. ) ;
#227 = DATE_TIME_ROLE ( 'classification_date' ) ;
#228 = CARTESIAN_POINT ( 'NONE',  ( -5.100000000000001421, 0.000000000000000000, 1000.000000000000000 ) ) ;
#229 = APPLICATION_CONTEXT ( 'configuration controlled 3d designs of mechanical parts and assemblies' ) ;
#230 = APPROVAL_ROLE ( '' ) ;
#231 = CC_DESIGN_SECURITY_CLASSIFICATION ( #59, ( #80 ) ) ;
#232 = EDGE_CURVE ( 'NONE', #182, #27, #211, .T. ) ;
#233 = LINE ( 'NONE', #36, #189 ) ;
#234 = AXIS2_PLACEMENT_3D ( 'NONE', #244, #191, #69 ) ;
#235 = CYLINDRICAL_SURFACE ( 'NONE', #245, 8.000000000000000000 ) ;
#236 = LOCAL_TIME ( 13, 23, 23.00000000000000000, #195 ) ;
#237 = CARTESIAN_POINT ( 'NONE',  ( 0.000000000000000000, 0.000000000000000000, 6.500000000000000000 ) ) ;
#238 = ORIENTED_EDGE ( 'NONE', *, *, #43, .T. ) ;
#239 = MECHANICAL_CONTEXT ( 'NONE', #77, 'mechanical' ) ;
#240 = VERTEX_POINT ( 'NONE', #66 ) ;
#241 = DIRECTION ( 'NONE',  ( 0.000000000000000000, 0.000000000000000000, 1.000000000000000000 ) ) ;
#242 = CARTESIAN_POINT ( 'NONE',  ( 0.000000000000000000, 0.000000000000000000, 1000.000000000000000 ) ) ;
#243 = ADVANCED_FACE ( 'NONE', ( #24 ), #219, .F. ) ;
#244 = CARTESIAN_POINT ( 'NONE',  ( 0.000000000000000000, 0.000000000000000000, 1000.000000000000000 ) ) ;
#245 = AXIS2_PLACEMENT_3D ( 'NONE', #19, #60, #79 ) ;
#246 = CARTESIAN_POINT ( 'NONE',  ( -5.100000000000001421, 0.000000000000000000, 6.500000000000000000 ) ) ;
#247 = APPROVAL_STATUS ( 'not_yet_approved' ) ;
#248 = EDGE_CURVE ( 'NONE', #240, #129, #190, .T. ) ;
#249 = APPROVAL_PERSON_ORGANIZATION ( #52, #164, #99 ) ;
#250 = DIRECTION ( 'NONE',  ( 1.000000000000000000, 0.000000000000000000, -0.000000000000000000 ) ) ;
#251 = CARTESIAN_POINT ( 'NONE',  ( 8.000000000000000000, 9.797174393178823685E-16, 6.500000000000000000 ) ) ;
#252 = CIRCLE ( 'NONE', #46, 5.100000000000001421 ) ;
#253 = COORDINATED_UNIVERSAL_TIME_OFFSET ( 1, 0, .AHEAD. ) ;
#254 = DIRECTION ( 'NONE',  ( 1.000000000000000000, 0.000000000000000000, 0.000000000000000000 ) ) ;
#255 = AXIS2_PLACEMENT_3D ( 'NONE', #26, #205, #67 ) ;
ENDSEC;
END-ISO-10303-21;
