ISO-10303-21;
HEADER;
FILE_DESCRIPTION (( 'STEP AP203' ),
    '1' );
FILE_NAME ('6e20.STEP',
    '2023-02-13T07:28:52',
    ( '' ),
    ( '' ),
    'SwSTEP 2.0',
    'SolidWorks 2019',
    '' );
FILE_SCHEMA (( 'CONFIG_CONTROL_DESIGN' ));
ENDSEC;

DATA;
#1 = VECTOR ( 'NONE', #7, 1000.000000000000000 ) ;
#2 = CC_DESIGN_PERSON_AND_ORGANIZATION_ASSIGNMENT ( #87, #47, ( #223 ) ) ;
#3 = EDGE_LOOP ( 'NONE', ( #231, #232 ) ) ;
#4 = APPROVAL ( #209, 'NEURÈENÝ' ) ;
#5 = LOCAL_TIME ( 8, 28, 52.00000000000000000, #185 ) ;
#6 = CARTESIAN_POINT ( 'NONE',  ( 0.000000000000000000, 0.000000000000000000, 630.0000000000000000 ) ) ;
#7 = DIRECTION ( 'NONE',  ( -0.000000000000000000, -0.000000000000000000, -1.000000000000000000 ) ) ;
#8 = CARTESIAN_POINT ( 'NONE',  ( -20.00000000000000000, 0.000000000000000000, 0.000000000000000000 ) ) ;
#9 = CARTESIAN_POINT ( 'NONE',  ( 0.000000000000000000, 0.000000000000000000, 630.0000000000000000 ) ) ;
#10 = ORIENTED_EDGE ( 'NONE', *, *, #146, .F. ) ;
#11 = ORIENTED_EDGE ( 'NONE', *, *, #30, .F. ) ;
#12 = CALENDAR_DATE ( 2023, 13, 2 ) ;
#13 = ORIENTED_EDGE ( 'NONE', *, *, #226, .T. ) ;
#14 = DIRECTION ( 'NONE',  ( 0.000000000000000000, 0.000000000000000000, 1.000000000000000000 ) ) ;
#15 = PRODUCT ( '6e20', '6e20', '', ( #129 ) ) ;
#16 = EDGE_LOOP ( 'NONE', ( #247, #10, #89, #225 ) ) ;
#17 = CARTESIAN_POINT ( 'NONE',  ( 0.000000000000000000, 0.000000000000000000, 0.000000000000000000 ) ) ;
#18 = CARTESIAN_POINT ( 'NONE',  ( 0.000000000000000000, 0.000000000000000000, 10.00000000000000000 ) ) ;
#19 = CALENDAR_DATE ( 2023, 13, 2 ) ;
#20 = DIRECTION ( 'NONE',  ( 1.000000000000000000, 0.000000000000000000, 0.000000000000000000 ) ) ;
#21 = FACE_OUTER_BOUND ( 'NONE', #3, .T. ) ;
#22 = PERSON_AND_ORGANIZATION_ROLE ( 'classification_officer' ) ;
#23 = LINE ( 'NONE', #40, #204 ) ;
#24 = DIRECTION ( 'NONE',  ( -1.000000000000000000, 0.000000000000000000, 0.000000000000000000 ) ) ;
#25 = CYLINDRICAL_SURFACE ( 'NONE', #49, 20.00000000000000000 ) ;
#26 = AXIS2_PLACEMENT_3D ( 'NONE', #6, #240, #138 ) ;
#27 = EDGE_CURVE ( 'NONE', #186, #64, #192, .T. ) ;
#28 = DIRECTION ( 'NONE',  ( 1.000000000000000000, 0.000000000000000000, -0.000000000000000000 ) ) ;
#29 = MANIFOLD_SOLID_BREP ( 'Pøidat vysunutím3', #63 ) ;
#30 = EDGE_CURVE ( 'NONE', #203, #150, #133, .T. ) ;
#31 = ORIENTED_EDGE ( 'NONE', *, *, #74, .T. ) ;
#32 = DESIGN_CONTEXT ( 'detailed design', #88, 'design' ) ;
#33 = ORIENTED_EDGE ( 'NONE', *, *, #226, .F. ) ;
#34 = DIRECTION ( 'NONE',  ( 1.000000000000000000, 0.000000000000000000, 0.000000000000000000 ) ) ;
#35 = DIRECTION ( 'NONE',  ( 1.000000000000000000, 0.000000000000000000, 0.000000000000000000 ) ) ;
#36 = CC_DESIGN_APPROVAL ( #4, ( #223 ) ) ;
#37 = DATE_AND_TIME ( #216, #113 ) ;
#38 = FACE_OUTER_BOUND ( 'NONE', #153, .T. ) ;
#39 = AXIS2_PLACEMENT_3D ( 'NONE', #155, #168, #171 ) ;
#40 = CARTESIAN_POINT ( 'NONE',  ( 16.00000000000000000, 1.959434878635765131E-15, 630.0000000000000000 ) ) ;
#41 = LINE ( 'NONE', #195, #227 ) ;
#42 = APPROVAL ( #143, 'NEURÈENÝ' ) ;
#43 = DATE_AND_TIME ( #139, #166 ) ;
#44 = DIRECTION ( 'NONE',  ( 0.000000000000000000, 0.000000000000000000, 1.000000000000000000 ) ) ;
#45 = APPLICATION_PROTOCOL_DEFINITION ( 'international standard', 'config_control_design', 1994, #88 ) ;
#46 = CC_DESIGN_DATE_AND_TIME_ASSIGNMENT ( #37, #176, ( #91 ) ) ;
#47 = PERSON_AND_ORGANIZATION_ROLE ( 'creator' ) ;
#48 = EDGE_LOOP ( 'NONE', ( #11, #50 ) ) ;
#49 = AXIS2_PLACEMENT_3D ( 'NONE', #103, #213, #208 ) ;
#50 = ORIENTED_EDGE ( 'NONE', *, *, #74, .F. ) ;
#51 = PRODUCT_RELATED_PRODUCT_CATEGORY ( 'detail', '', ( #15 ) ) ;
#52 = VERTEX_POINT ( 'NONE', #137 ) ;
#53 = CARTESIAN_POINT ( 'NONE',  ( 0.000000000000000000, 0.000000000000000000, 630.0000000000000000 ) ) ;
#54 = EDGE_CURVE ( 'NONE', #64, #203, #179, .T. ) ;
#55 = AXIS2_PLACEMENT_3D ( 'NONE', #105, #79, #147 ) ;
#56 = DATE_AND_TIME ( #19, #65 ) ;
#57 = CIRCLE ( 'NONE', #114, 20.00000000000000000 ) ;
#58 = CC_DESIGN_PERSON_AND_ORGANIZATION_ASSIGNMENT ( #169, #22, ( #97 ) ) ;
#59 = FACE_OUTER_BOUND ( 'NONE', #210, .T. ) ;
#60 = CARTESIAN_POINT ( 'NONE',  ( 16.00000000000000000, 1.959434878635765131E-15, 10.00000000000000000 ) ) ;
#61 = PERSON_AND_ORGANIZATION ( #140, #248 ) ;
#62 = CARTESIAN_POINT ( 'NONE',  ( 0.000000000000000000, 0.000000000000000000, 630.0000000000000000 ) ) ;
#63 = CLOSED_SHELL ( 'NONE', ( #234, #238, #76, #106, #244, #183, #111 ) ) ;
#64 = VERTEX_POINT ( 'NONE', #241 ) ;
#65 = LOCAL_TIME ( 8, 28, 52.00000000000000000, #115 ) ;
#66 = AXIS2_PLACEMENT_3D ( 'NONE', #152, #109, #163 ) ;
#67 = SECURITY_CLASSIFICATION_LEVEL ( 'unclassified' ) ;
#68 = ORIENTED_EDGE ( 'NONE', *, *, #80, .F. ) ;
#69 = AXIS2_PLACEMENT_3D ( 'NONE', #190, #252, #90 ) ;
#70 = CARTESIAN_POINT ( 'NONE',  ( 0.000000000000000000, 0.000000000000000000, 0.000000000000000000 ) ) ;
#71 = APPROVAL_STATUS ( 'not_yet_approved' ) ;
#72 = CC_DESIGN_APPROVAL ( #116, ( #91 ) ) ;
#73 = ORIENTED_EDGE ( 'NONE', *, *, #199, .F. ) ;
#74 = EDGE_CURVE ( 'NONE', #150, #203, #154, .T. ) ;
#75 = APPLICATION_CONTEXT ( 'configuration controlled 3d designs of mechanical parts and assemblies' ) ;
#76 = ADVANCED_FACE ( 'NONE', ( #215 ), #151, .T. ) ;
#77 = CARTESIAN_POINT ( 'NONE',  ( 0.000000000000000000, 0.000000000000000000, 10.00000000000000000 ) ) ;
#78 = LINE ( 'NONE', #120, #92 ) ;
#79 = DIRECTION ( 'NONE',  ( 0.000000000000000000, 0.000000000000000000, 1.000000000000000000 ) ) ;
#80 = EDGE_CURVE ( 'NONE', #145, #228, #135, .T. ) ;
#81 = PERSON_AND_ORGANIZATION ( #140, #248 ) ;
#82 = ORIENTED_EDGE ( 'NONE', *, *, #27, .T. ) ;
#83 = CIRCLE ( 'NONE', #55, 16.00000000000000000 ) ;
#84 = PERSON_AND_ORGANIZATION ( #140, #248 ) ;
#85 = SHAPE_DEFINITION_REPRESENTATION ( #112, #196 ) ;
#86 = FACE_OUTER_BOUND ( 'NONE', #48, .T. ) ;
#87 = PERSON_AND_ORGANIZATION ( #140, #248 ) ;
#88 = APPLICATION_CONTEXT ( 'configuration controlled 3d designs of mechanical parts and assemblies' ) ;
#89 = ORIENTED_EDGE ( 'NONE', *, *, #54, .T. ) ;
#90 = DIRECTION ( 'NONE',  ( 1.000000000000000000, 0.000000000000000000, 0.000000000000000000 ) ) ;
#91 = PRODUCT_DEFINITION ( 'NEZNÁMÝ', '', #223, #32 ) ;
#92 = VECTOR ( 'NONE', #182, 1000.000000000000000 ) ;
#93 = APPROVAL_ROLE ( '' ) ;
#94 = AXIS2_PLACEMENT_3D ( 'NONE', #128, #230, #34 ) ;
#95 = FACE_BOUND ( 'NONE', #229, .T. ) ;
#96 = PLANE ( 'NONE',  #26 ) ;
#97 = SECURITY_CLASSIFICATION ( '', '', #67 ) ;
#98 = DIRECTION ( 'NONE',  ( -0.000000000000000000, -0.000000000000000000, -1.000000000000000000 ) ) ;
#99 = EDGE_CURVE ( 'NONE', #125, #52, #219, .T. ) ;
#100 = FACE_OUTER_BOUND ( 'NONE', #126, .T. ) ;
#101 = PERSON_AND_ORGANIZATION_ROLE ( 'design_owner' ) ;
#102 = CC_DESIGN_SECURITY_CLASSIFICATION ( #97, ( #223 ) ) ;
#103 = CARTESIAN_POINT ( 'NONE',  ( 0.000000000000000000, 0.000000000000000000, 10.00000000000000000 ) ) ;
#104 = APPROVAL_DATE_TIME ( #108, #42 ) ;
#105 = CARTESIAN_POINT ( 'NONE',  ( 0.000000000000000000, 0.000000000000000000, 10.00000000000000000 ) ) ;
#106 = ADVANCED_FACE ( 'NONE', ( #95, #38 ), #178, .T. ) ;
#107 = CARTESIAN_POINT ( 'NONE',  ( 0.000000000000000000, 0.000000000000000000, 10.00000000000000000 ) ) ;
#108 = DATE_AND_TIME ( #12, #254 ) ;
#109 = DIRECTION ( 'NONE',  ( 0.000000000000000000, 0.000000000000000000, 1.000000000000000000 ) ) ;
#110 = ORIENTED_EDGE ( 'NONE', *, *, #27, .F. ) ;
#111 = ADVANCED_FACE ( 'NONE', ( #21 ), #96, .T. ) ;
#112 = PRODUCT_DEFINITION_SHAPE ( 'NONE', 'NONE',  #91 ) ;
#113 = LOCAL_TIME ( 8, 28, 52.00000000000000000, #132 ) ;
#114 = AXIS2_PLACEMENT_3D ( 'NONE', #107, #44, #119 ) ;
#115 = COORDINATED_UNIVERSAL_TIME_OFFSET ( 1, 0, .AHEAD. ) ;
#116 = APPROVAL ( #71, 'NEURÈENÝ' ) ;
#117 = DIRECTION ( 'NONE',  ( 0.000000000000000000, 0.000000000000000000, 1.000000000000000000 ) ) ;
#118 = DIRECTION ( 'NONE',  ( -1.000000000000000000, 0.000000000000000000, 0.000000000000000000 ) ) ;
#119 = DIRECTION ( 'NONE',  ( 1.000000000000000000, 0.000000000000000000, 0.000000000000000000 ) ) ;
#120 = CARTESIAN_POINT ( 'NONE',  ( -16.00000000000000000, 0.000000000000000000, 630.0000000000000000 ) ) ;
#121 = CYLINDRICAL_SURFACE ( 'NONE', #123, 16.00000000000000000 ) ;
#122 = CC_DESIGN_PERSON_AND_ORGANIZATION_ASSIGNMENT ( #136, #194, ( #91 ) ) ;
#123 = AXIS2_PLACEMENT_3D ( 'NONE', #62, #201, #24 ) ;
#124 = PERSON_AND_ORGANIZATION ( #140, #248 ) ;
#125 = VERTEX_POINT ( 'NONE', #220 ) ;
#126 = EDGE_LOOP ( 'NONE', ( #110, #149, #31, #148 ) ) ;
#127 = UNCERTAINTY_MEASURE_WITH_UNIT (LENGTH_MEASURE( 1.000000000000000082E-05 ), #236, 'distance_accuracy_value', 'NONE');
#128 = CARTESIAN_POINT ( 'NONE',  ( 0.000000000000000000, 0.000000000000000000, 0.000000000000000000 ) ) ;
#129 = MECHANICAL_CONTEXT ( 'NONE', #75, 'mechanical' ) ;
#130 =( NAMED_UNIT ( * ) PLANE_ANGLE_UNIT ( ) SI_UNIT ( $, .RADIAN. ) );
#131 = APPROVAL_PERSON_ORGANIZATION ( #81, #4, #224 ) ;
#132 = COORDINATED_UNIVERSAL_TIME_OFFSET ( 1, 0, .AHEAD. ) ;
#133 = CIRCLE ( 'NONE', #212, 20.00000000000000000 ) ;
#134 = EDGE_CURVE ( 'NONE', #186, #150, #41, .T. ) ;
#135 = CIRCLE ( 'NONE', #69, 16.00000000000000000 ) ;
#136 = PERSON_AND_ORGANIZATION ( #140, #248 ) ;
#137 = CARTESIAN_POINT ( 'NONE',  ( -16.00000000000000000, 0.000000000000000000, 630.0000000000000000 ) ) ;
#138 = DIRECTION ( 'NONE',  ( 1.000000000000000000, 0.000000000000000000, -0.000000000000000000 ) ) ;
#139 = CALENDAR_DATE ( 2023, 13, 2 ) ;
#140 = PERSON ( 'NEURÈENÝ', 'NEURÈENÝ', 'NEURÈENÝ', ('NEURÈENÝ'), ('NEURÈENÝ'), ('NEURÈENÝ') ) ;
#141 = CC_DESIGN_DATE_AND_TIME_ASSIGNMENT ( #43, #200, ( #97 ) ) ;
#142 = CARTESIAN_POINT ( 'NONE',  ( -20.00000000000000000, 0.000000000000000000, 10.00000000000000000 ) ) ;
#143 = APPROVAL_STATUS ( 'not_yet_approved' ) ;
#144 = ORIENTED_EDGE ( 'NONE', *, *, #239, .F. ) ;
#145 = VERTEX_POINT ( 'NONE', #60 ) ;
#146 = EDGE_CURVE ( 'NONE', #64, #186, #57, .T. ) ;
#147 = DIRECTION ( 'NONE',  ( 1.000000000000000000, 0.000000000000000000, 0.000000000000000000 ) ) ;
#148 = ORIENTED_EDGE ( 'NONE', *, *, #54, .F. ) ;
#149 = ORIENTED_EDGE ( 'NONE', *, *, #134, .T. ) ;
#150 = VERTEX_POINT ( 'NONE', #222 ) ;
#151 = CYLINDRICAL_SURFACE ( 'NONE', #39, 20.00000000000000000 ) ;
#152 = CARTESIAN_POINT ( 'NONE',  ( 0.000000000000000000, 0.000000000000000000, 630.0000000000000000 ) ) ;
#153 = EDGE_LOOP ( 'NONE', ( #170, #82 ) ) ;
#154 = CIRCLE ( 'NONE', #94, 20.00000000000000000 ) ;
#155 = CARTESIAN_POINT ( 'NONE',  ( 0.000000000000000000, 0.000000000000000000, 10.00000000000000000 ) ) ;
#156 = CC_DESIGN_APPROVAL ( #42, ( #97 ) ) ;
#157 =( NAMED_UNIT ( * ) SI_UNIT ( $, .STERADIAN. ) SOLID_ANGLE_UNIT ( ) );
#158 = CIRCLE ( 'NONE', #66, 16.00000000000000000 ) ;
#159 = DIRECTION ( 'NONE',  ( -0.000000000000000000, -0.000000000000000000, -1.000000000000000000 ) ) ;
#160 = CARTESIAN_POINT ( 'NONE',  ( -16.00000000000000000, 0.000000000000000000, 10.00000000000000000 ) ) ;
#161 =( GEOMETRIC_REPRESENTATION_CONTEXT ( 3 ) GLOBAL_UNCERTAINTY_ASSIGNED_CONTEXT ( ( #127 ) ) GLOBAL_UNIT_ASSIGNED_CONTEXT ( ( #236, #130, #157 ) ) REPRESENTATION_CONTEXT ( 'NONE', 'WORKASPACE' ) );
#162 = AXIS2_PLACEMENT_3D ( 'NONE', #53, #172, #35 ) ;
#163 = DIRECTION ( 'NONE',  ( 1.000000000000000000, 0.000000000000000000, 0.000000000000000000 ) ) ;
#164 = ORIENTED_EDGE ( 'NONE', *, *, #253, .T. ) ;
#165 = ORIENTED_EDGE ( 'NONE', *, *, #99, .F. ) ;
#166 = LOCAL_TIME ( 8, 28, 52.00000000000000000, #242 ) ;
#167 = ORIENTED_EDGE ( 'NONE', *, *, #253, .F. ) ;
#168 = DIRECTION ( 'NONE',  ( -0.000000000000000000, -0.000000000000000000, -1.000000000000000000 ) ) ;
#169 = PERSON_AND_ORGANIZATION ( #140, #248 ) ;
#170 = ORIENTED_EDGE ( 'NONE', *, *, #146, .T. ) ;
#171 = DIRECTION ( 'NONE',  ( -1.000000000000000000, 0.000000000000000000, 0.000000000000000000 ) ) ;
#172 = DIRECTION ( 'NONE',  ( 0.000000000000000000, 0.000000000000000000, 1.000000000000000000 ) ) ;
#173 = DIRECTION ( 'NONE',  ( 0.000000000000000000, 0.000000000000000000, 1.000000000000000000 ) ) ;
#174 = AXIS2_PLACEMENT_3D ( 'NONE', #77, #117, #193 ) ;
#175 = DIRECTION ( 'NONE',  ( 0.000000000000000000, 0.000000000000000000, 1.000000000000000000 ) ) ;
#176 = DATE_TIME_ROLE ( 'creation_date' ) ;
#177 = APPROVAL_PERSON_ORGANIZATION ( #61, #42, #197 ) ;
#178 = PLANE ( 'NONE',  #174 ) ;
#179 = LINE ( 'NONE', #142, #1 ) ;
#180 = DIRECTION ( 'NONE',  ( -0.000000000000000000, -0.000000000000000000, -1.000000000000000000 ) ) ;
#181 = COORDINATED_UNIVERSAL_TIME_OFFSET ( 1, 0, .AHEAD. ) ;
#182 = DIRECTION ( 'NONE',  ( -0.000000000000000000, -0.000000000000000000, -1.000000000000000000 ) ) ;
#183 = ADVANCED_FACE ( 'NONE', ( #59 ), #221, .T. ) ;
#184 = DIRECTION ( 'NONE',  ( 0.000000000000000000, 0.000000000000000000, 1.000000000000000000 ) ) ;
#185 = COORDINATED_UNIVERSAL_TIME_OFFSET ( 1, 0, .AHEAD. ) ;
#186 = VERTEX_POINT ( 'NONE', #243 ) ;
#187 = ORIENTED_EDGE ( 'NONE', *, *, #80, .T. ) ;
#188 = APPROVAL_DATE_TIME ( #207, #4 ) ;
#189 = DIRECTION ( 'NONE',  ( 1.000000000000000000, 0.000000000000000000, 0.000000000000000000 ) ) ;
#190 = CARTESIAN_POINT ( 'NONE',  ( 0.000000000000000000, 0.000000000000000000, 10.00000000000000000 ) ) ;
#191 = AXIS2_PLACEMENT_3D ( 'NONE', #9, #98, #118 ) ;
#192 = CIRCLE ( 'NONE', #251, 20.00000000000000000 ) ;
#193 = DIRECTION ( 'NONE',  ( 1.000000000000000000, 0.000000000000000000, -0.000000000000000000 ) ) ;
#194 = PERSON_AND_ORGANIZATION_ROLE ( 'creator' ) ;
#195 = CARTESIAN_POINT ( 'NONE',  ( 20.00000000000000000, 2.449293598294706513E-15, 10.00000000000000000 ) ) ;
#196 = ADVANCED_BREP_SHAPE_REPRESENTATION ( '6e20', ( #29, #217 ), #161 ) ;
#197 = APPROVAL_ROLE ( '' ) ;
#198 = FACE_OUTER_BOUND ( 'NONE', #206, .T. ) ;
#199 = EDGE_CURVE ( 'NONE', #125, #145, #23, .T. ) ;
#200 = DATE_TIME_ROLE ( 'classification_date' ) ;
#201 = DIRECTION ( 'NONE',  ( -0.000000000000000000, -0.000000000000000000, -1.000000000000000000 ) ) ;
#202 = PERSON_AND_ORGANIZATION ( #140, #248 ) ;
#203 = VERTEX_POINT ( 'NONE', #8 ) ;
#204 = VECTOR ( 'NONE', #180, 1000.000000000000000 ) ;
#205 = PERSON_AND_ORGANIZATION_ROLE ( 'design_supplier' ) ;
#206 = EDGE_LOOP ( 'NONE', ( #165, #250, #187, #33 ) ) ;
#207 = DATE_AND_TIME ( #249, #5 ) ;
#208 = DIRECTION ( 'NONE',  ( -1.000000000000000000, 0.000000000000000000, 0.000000000000000000 ) ) ;
#209 = APPROVAL_STATUS ( 'not_yet_approved' ) ;
#210 = EDGE_LOOP ( 'NONE', ( #73, #144, #13, #164 ) ) ;
#211 = AXIS2_PLACEMENT_3D ( 'NONE', #245, #184, #28 ) ;
#212 = AXIS2_PLACEMENT_3D ( 'NONE', #70, #14, #20 ) ;
#213 = DIRECTION ( 'NONE',  ( -0.000000000000000000, -0.000000000000000000, -1.000000000000000000 ) ) ;
#214 = CC_DESIGN_PERSON_AND_ORGANIZATION_ASSIGNMENT ( #124, #205, ( #223 ) ) ;
#215 = FACE_OUTER_BOUND ( 'NONE', #16, .T. ) ;
#216 = CALENDAR_DATE ( 2023, 13, 2 ) ;
#217 = AXIS2_PLACEMENT_3D ( 'NONE', #17, #173, #255 ) ;
#218 = APPROVAL_DATE_TIME ( #56, #116 ) ;
#219 = CIRCLE ( 'NONE', #162, 16.00000000000000000 ) ;
#220 = CARTESIAN_POINT ( 'NONE',  ( 16.00000000000000000, 1.959434878635765131E-15, 630.0000000000000000 ) ) ;
#221 = CYLINDRICAL_SURFACE ( 'NONE', #191, 16.00000000000000000 ) ;
#222 = CARTESIAN_POINT ( 'NONE',  ( 20.00000000000000000, 2.449293598294706513E-15, 0.000000000000000000 ) ) ;
#223 = PRODUCT_DEFINITION_FORMATION_WITH_SPECIFIED_SOURCE ( 'LIBOVOLNÝ', '', #15, .NOT_KNOWN. ) ;
#224 = APPROVAL_ROLE ( '' ) ;
#225 = ORIENTED_EDGE ( 'NONE', *, *, #30, .T. ) ;
#226 = EDGE_CURVE ( 'NONE', #52, #228, #78, .T. ) ;
#227 = VECTOR ( 'NONE', #159, 1000.000000000000000 ) ;
#228 = VERTEX_POINT ( 'NONE', #160 ) ;
#229 = EDGE_LOOP ( 'NONE', ( #167, #68 ) ) ;
#230 = DIRECTION ( 'NONE',  ( 0.000000000000000000, 0.000000000000000000, 1.000000000000000000 ) ) ;
#231 = ORIENTED_EDGE ( 'NONE', *, *, #239, .T. ) ;
#232 = ORIENTED_EDGE ( 'NONE', *, *, #99, .T. ) ;
#233 = PLANE ( 'NONE',  #211 ) ;
#234 = ADVANCED_FACE ( 'NONE', ( #198 ), #121, .T. ) ;
#235 = APPLICATION_PROTOCOL_DEFINITION ( 'international standard', 'config_control_design', 1994, #75 ) ;
#236 =( LENGTH_UNIT ( ) NAMED_UNIT ( * ) SI_UNIT ( .MILLI., .METRE. ) );
#237 = APPROVAL_PERSON_ORGANIZATION ( #202, #116, #93 ) ;
#238 = ADVANCED_FACE ( 'NONE', ( #100 ), #25, .T. ) ;
#239 = EDGE_CURVE ( 'NONE', #52, #125, #158, .T. ) ;
#240 = DIRECTION ( 'NONE',  ( 0.000000000000000000, 0.000000000000000000, 1.000000000000000000 ) ) ;
#241 = CARTESIAN_POINT ( 'NONE',  ( -20.00000000000000000, 0.000000000000000000, 10.00000000000000000 ) ) ;
#242 = COORDINATED_UNIVERSAL_TIME_OFFSET ( 1, 0, .AHEAD. ) ;
#243 = CARTESIAN_POINT ( 'NONE',  ( 20.00000000000000000, 2.449293598294706513E-15, 10.00000000000000000 ) ) ;
#244 = ADVANCED_FACE ( 'NONE', ( #86 ), #233, .F. ) ;
#245 = CARTESIAN_POINT ( 'NONE',  ( 0.000000000000000000, 0.000000000000000000, 0.000000000000000000 ) ) ;
#246 = CC_DESIGN_PERSON_AND_ORGANIZATION_ASSIGNMENT ( #84, #101, ( #15 ) ) ;
#247 = ORIENTED_EDGE ( 'NONE', *, *, #134, .F. ) ;
#248 = ORGANIZATION ( 'NEURÈENÝ', 'NEURÈENÝ', '' ) ;
#249 = CALENDAR_DATE ( 2023, 13, 2 ) ;
#250 = ORIENTED_EDGE ( 'NONE', *, *, #199, .T. ) ;
#251 = AXIS2_PLACEMENT_3D ( 'NONE', #18, #175, #189 ) ;
#252 = DIRECTION ( 'NONE',  ( 0.000000000000000000, 0.000000000000000000, 1.000000000000000000 ) ) ;
#253 = EDGE_CURVE ( 'NONE', #228, #145, #83, .T. ) ;
#254 = LOCAL_TIME ( 8, 28, 52.00000000000000000, #181 ) ;
#255 = DIRECTION ( 'NONE',  ( 1.000000000000000000, 0.000000000000000000, 0.000000000000000000 ) ) ;
ENDSEC;
END-ISO-10303-21;
