ISO-10303-21;
HEADER;
FILE_DESCRIPTION (( 'STEP AP203' ),
    '1' );
FILE_NAME ('1f64.STEP',
    '2023-02-13T17:16:03',
    ( '' ),
    ( '' ),
    'SwSTEP 2.0',
    'SolidWorks 2019',
    '' );
FILE_SCHEMA (( 'CONFIG_CONTROL_DESIGN' ));
ENDSEC;

DATA;
#1 = APPROVAL ( #112, 'NEURÈENÝ' ) ;
#2 = LINE ( 'NONE', #64, #35 ) ;
#3 =( GEOMETRIC_REPRESENTATION_CONTEXT ( 3 ) GLOBAL_UNCERTAINTY_ASSIGNED_CONTEXT ( ( #221 ) ) GLOBAL_UNIT_ASSIGNED_CONTEXT ( ( #149, #223, #165 ) ) REPRESENTATION_CONTEXT ( 'NONE', 'WORKASPACE' ) );
#4 = CARTESIAN_POINT ( 'NONE',  ( -2.000000000000000000, 0.000000000000000000, 1.500000000000000000 ) ) ;
#5 = DIRECTION ( 'NONE',  ( 1.000000000000000000, 0.000000000000000000, 0.000000000000000000 ) ) ;
#6 = AXIS2_PLACEMENT_3D ( 'NONE', #244, #225, #33 ) ;
#7 = PERSON_AND_ORGANIZATION_ROLE ( 'design_owner' ) ;
#8 = ORIENTED_EDGE ( 'NONE', *, *, #142, .T. ) ;
#9 = EDGE_CURVE ( 'NONE', #60, #138, #181, .T. ) ;
#10 = VECTOR ( 'NONE', #163, 1000.000000000000000 ) ;
#11 = CARTESIAN_POINT ( 'NONE',  ( 0.000000000000000000, 0.000000000000000000, 0.000000000000000000 ) ) ;
#12 = CARTESIAN_POINT ( 'NONE',  ( -2.000000000000000000, 0.000000000000000000, 0.000000000000000000 ) ) ;
#13 = DATE_AND_TIME ( #211, #195 ) ;
#14 = ORIENTED_EDGE ( 'NONE', *, *, #39, .F. ) ;
#15 = AXIS2_PLACEMENT_3D ( 'NONE', #143, #156, #84 ) ;
#16 = ORIENTED_EDGE ( 'NONE', *, *, #27, .F. ) ;
#17 = APPROVAL_ROLE ( '' ) ;
#18 = ORIENTED_EDGE ( 'NONE', *, *, #98, .F. ) ;
#19 = PERSON_AND_ORGANIZATION ( #89, #234 ) ;
#20 = CC_DESIGN_APPROVAL ( #1, ( #87 ) ) ;
#21 = EDGE_LOOP ( 'NONE', ( #88, #231 ) ) ;
#22 = DIRECTION ( 'NONE',  ( -0.000000000000000000, -0.000000000000000000, -1.000000000000000000 ) ) ;
#23 = FACE_OUTER_BOUND ( 'NONE', #191, .T. ) ;
#24 = DIRECTION ( 'NONE',  ( -1.000000000000000000, 0.000000000000000000, 0.000000000000000000 ) ) ;
#25 = VECTOR ( 'NONE', #207, 1000.000000000000000 ) ;
#26 = DIRECTION ( 'NONE',  ( -1.000000000000000000, 0.000000000000000000, 0.000000000000000000 ) ) ;
#27 = EDGE_CURVE ( 'NONE', #232, #229, #248, .T. ) ;
#28 = APPLICATION_CONTEXT ( 'configuration controlled 3d designs of mechanical parts and assemblies' ) ;
#29 = CARTESIAN_POINT ( 'NONE',  ( -0.9000000000000000222, 0.000000000000000000, 160.0000000000000000 ) ) ;
#30 = DATE_AND_TIME ( #36, #153 ) ;
#31 = AXIS2_PLACEMENT_3D ( 'NONE', #120, #235, #85 ) ;
#32 = COORDINATED_UNIVERSAL_TIME_OFFSET ( 1, 0, .AHEAD. ) ;
#33 = DIRECTION ( 'NONE',  ( 1.000000000000000000, 0.000000000000000000, 0.000000000000000000 ) ) ;
#34 = PERSON_AND_ORGANIZATION ( #89, #234 ) ;
#35 = VECTOR ( 'NONE', #49, 1000.000000000000000 ) ;
#36 = CALENDAR_DATE ( 2023, 13, 2 ) ;
#37 = APPROVAL_PERSON_ORGANIZATION ( #171, #160, #148 ) ;
#38 = VERTEX_POINT ( 'NONE', #146 ) ;
#39 = EDGE_CURVE ( 'NONE', #155, #56, #93, .T. ) ;
#40 = APPROVAL_DATE_TIME ( #128, #160 ) ;
#41 = ORIENTED_EDGE ( 'NONE', *, *, #58, .T. ) ;
#42 = AXIS2_PLACEMENT_3D ( 'NONE', #66, #45, #179 ) ;
#43 = CC_DESIGN_PERSON_AND_ORGANIZATION_ASSIGNMENT ( #210, #114, ( #87 ) ) ;
#44 = DIRECTION ( 'NONE',  ( -0.000000000000000000, -0.000000000000000000, -1.000000000000000000 ) ) ;
#45 = DIRECTION ( 'NONE',  ( 0.000000000000000000, 0.000000000000000000, 1.000000000000000000 ) ) ;
#46 = ADVANCED_FACE ( 'NONE', ( #63, #47 ), #159, .T. ) ;
#47 = FACE_OUTER_BOUND ( 'NONE', #21, .T. ) ;
#48 = AXIS2_PLACEMENT_3D ( 'NONE', #204, #184, #5 ) ;
#49 = DIRECTION ( 'NONE',  ( -0.000000000000000000, -0.000000000000000000, -1.000000000000000000 ) ) ;
#50 = CARTESIAN_POINT ( 'NONE',  ( -0.9000000000000000222, 0.000000000000000000, 160.0000000000000000 ) ) ;
#51 = AXIS2_PLACEMENT_3D ( 'NONE', #103, #254, #139 ) ;
#52 = ADVANCED_FACE ( 'NONE', ( #125 ), #241, .T. ) ;
#53 = MECHANICAL_CONTEXT ( 'NONE', #230, 'mechanical' ) ;
#54 = ORIENTED_EDGE ( 'NONE', *, *, #178, .T. ) ;
#55 = DATE_AND_TIME ( #246, #124 ) ;
#56 = VERTEX_POINT ( 'NONE', #237 ) ;
#57 = COORDINATED_UNIVERSAL_TIME_OFFSET ( 1, 0, .AHEAD. ) ;
#58 = EDGE_CURVE ( 'NONE', #138, #38, #2, .T. ) ;
#59 = ORIENTED_EDGE ( 'NONE', *, *, #214, .F. ) ;
#60 = VERTEX_POINT ( 'NONE', #4 ) ;
#61 = ORIENTED_EDGE ( 'NONE', *, *, #178, .F. ) ;
#62 = AXIS2_PLACEMENT_3D ( 'NONE', #147, #22, #104 ) ;
#63 = FACE_BOUND ( 'NONE', #79, .T. ) ;
#64 = CARTESIAN_POINT ( 'NONE',  ( 2.000000000000000000, 2.449293598294706414E-16, 1.500000000000000000 ) ) ;
#65 = CYLINDRICAL_SURFACE ( 'NONE', #145, 0.9000000000000000222 ) ;
#66 = CARTESIAN_POINT ( 'NONE',  ( 0.000000000000000000, 0.000000000000000000, 1.500000000000000000 ) ) ;
#67 = VECTOR ( 'NONE', #106, 1000.000000000000000 ) ;
#68 = CYLINDRICAL_SURFACE ( 'NONE', #62, 2.000000000000000000 ) ;
#69 = DIRECTION ( 'NONE',  ( 1.000000000000000000, 0.000000000000000000, 0.000000000000000000 ) ) ;
#70 = CARTESIAN_POINT ( 'NONE',  ( 0.9000000000000000222, 1.102182119232617788E-16, 160.0000000000000000 ) ) ;
#71 = AXIS2_PLACEMENT_3D ( 'NONE', #186, #168, #226 ) ;
#72 = APPLICATION_PROTOCOL_DEFINITION ( 'international standard', 'config_control_design', 1994, #28 ) ;
#73 = CARTESIAN_POINT ( 'NONE',  ( 0.000000000000000000, 0.000000000000000000, 0.000000000000000000 ) ) ;
#74 = AXIS2_PLACEMENT_3D ( 'NONE', #90, #193, #69 ) ;
#75 = ORIENTED_EDGE ( 'NONE', *, *, #108, .F. ) ;
#76 = PRODUCT_RELATED_PRODUCT_CATEGORY ( 'detail', '', ( #176 ) ) ;
#77 = APPROVAL_STATUS ( 'not_yet_approved' ) ;
#78 = COORDINATED_UNIVERSAL_TIME_OFFSET ( 1, 0, .AHEAD. ) ;
#79 = EDGE_LOOP ( 'NONE', ( #14, #187 ) ) ;
#80 = DIRECTION ( 'NONE',  ( 1.000000000000000000, 0.000000000000000000, -0.000000000000000000 ) ) ;
#81 = FACE_OUTER_BOUND ( 'NONE', #250, .T. ) ;
#82 = ADVANCED_FACE ( 'NONE', ( #81 ), #158, .F. ) ;
#83 = DESIGN_CONTEXT ( 'detailed design', #28, 'design' ) ;
#84 = DIRECTION ( 'NONE',  ( 1.000000000000000000, 0.000000000000000000, -0.000000000000000000 ) ) ;
#85 = DIRECTION ( 'NONE',  ( 1.000000000000000000, 0.000000000000000000, 0.000000000000000000 ) ) ;
#86 = PRODUCT_DEFINITION_FORMATION_WITH_SPECIFIED_SOURCE ( 'LIBOVOLNÝ', '', #176, .NOT_KNOWN. ) ;
#87 = PRODUCT_DEFINITION ( 'NEZNÁMÝ', '', #86, #83 ) ;
#88 = ORIENTED_EDGE ( 'NONE', *, *, #9, .T. ) ;
#89 = PERSON ( 'NEURÈENÝ', 'NEURÈENÝ', 'NEURÈENÝ', ('NEURÈENÝ'), ('NEURÈENÝ'), ('NEURÈENÝ') ) ;
#90 = CARTESIAN_POINT ( 'NONE',  ( 0.000000000000000000, 0.000000000000000000, 1.500000000000000000 ) ) ;
#91 = EDGE_LOOP ( 'NONE', ( #252, #41, #8, #61 ) ) ;
#92 = EDGE_CURVE ( 'NONE', #229, #155, #219, .T. ) ;
#93 = CIRCLE ( 'NONE', #42, 0.9000000000000000222 ) ;
#94 = APPROVAL_ROLE ( '' ) ;
#95 = ORIENTED_EDGE ( 'NONE', *, *, #214, .T. ) ;
#96 = EDGE_LOOP ( 'NONE', ( #198, #115 ) ) ;
#97 = APPROVAL_PERSON_ORGANIZATION ( #19, #192, #17 ) ;
#98 = EDGE_CURVE ( 'NONE', #232, #56, #123, .T. ) ;
#99 = PERSON_AND_ORGANIZATION ( #89, #234 ) ;
#100 = EDGE_LOOP ( 'NONE', ( #18, #75, #243, #118 ) ) ;
#101 = AXIS2_PLACEMENT_3D ( 'NONE', #238, #107, #126 ) ;
#102 = AXIS2_PLACEMENT_3D ( 'NONE', #73, #152, #151 ) ;
#103 = CARTESIAN_POINT ( 'NONE',  ( 0.000000000000000000, 0.000000000000000000, 1.500000000000000000 ) ) ;
#104 = DIRECTION ( 'NONE',  ( -1.000000000000000000, 0.000000000000000000, 0.000000000000000000 ) ) ;
#105 = LOCAL_TIME ( 18, 16, 3.000000000000000000, #57 ) ;
#106 = DIRECTION ( 'NONE',  ( -0.000000000000000000, -0.000000000000000000, -1.000000000000000000 ) ) ;
#107 = DIRECTION ( 'NONE',  ( -0.000000000000000000, -0.000000000000000000, -1.000000000000000000 ) ) ;
#108 = EDGE_CURVE ( 'NONE', #229, #232, #162, .T. ) ;
#109 = CC_DESIGN_APPROVAL ( #160, ( #86 ) ) ;
#110 = LINE ( 'NONE', #130, #25 ) ;
#111 = CC_DESIGN_PERSON_AND_ORGANIZATION_ASSIGNMENT ( #34, #7, ( #176 ) ) ;
#112 = APPROVAL_STATUS ( 'not_yet_approved' ) ;
#113 = CIRCLE ( 'NONE', #48, 2.000000000000000000 ) ;
#114 = PERSON_AND_ORGANIZATION_ROLE ( 'creator' ) ;
#115 = ORIENTED_EDGE ( 'NONE', *, *, #27, .T. ) ;
#116 = ADVANCED_FACE ( 'NONE', ( #222 ), #65, .T. ) ;
#117 = DATE_AND_TIME ( #199, #105 ) ;
#118 = ORIENTED_EDGE ( 'NONE', *, *, #39, .T. ) ;
#119 = CLOSED_SHELL ( 'NONE', ( #116, #52, #166, #46, #82, #127, #170 ) ) ;
#120 = CARTESIAN_POINT ( 'NONE',  ( 0.000000000000000000, 0.000000000000000000, 160.0000000000000000 ) ) ;
#121 = ADVANCED_BREP_SHAPE_REPRESENTATION ( '1f64', ( #251, #102 ), #3 ) ;
#122 = DIRECTION ( 'NONE',  ( 1.000000000000000000, 0.000000000000000000, 0.000000000000000000 ) ) ;
#123 = LINE ( 'NONE', #182, #67 ) ;
#124 = LOCAL_TIME ( 18, 16, 3.000000000000000000, #169 ) ;
#125 = FACE_OUTER_BOUND ( 'NONE', #91, .T. ) ;
#126 = DIRECTION ( 'NONE',  ( -1.000000000000000000, 0.000000000000000000, 0.000000000000000000 ) ) ;
#127 = ADVANCED_FACE ( 'NONE', ( #183 ), #161, .T. ) ;
#128 = DATE_AND_TIME ( #242, #190 ) ;
#129 = CC_DESIGN_APPROVAL ( #192, ( #140 ) ) ;
#130 = CARTESIAN_POINT ( 'NONE',  ( -2.000000000000000000, 0.000000000000000000, 1.500000000000000000 ) ) ;
#131 = PERSON_AND_ORGANIZATION ( #89, #234 ) ;
#132 = APPROVAL_DATE_TIME ( #55, #1 ) ;
#133 = CIRCLE ( 'NONE', #74, 2.000000000000000000 ) ;
#134 = DATE_TIME_ROLE ( 'classification_date' ) ;
#135 = PERSON_AND_ORGANIZATION ( #89, #234 ) ;
#136 = PRODUCT_DEFINITION_SHAPE ( 'NONE', 'NONE',  #87 ) ;
#137 = AXIS2_PLACEMENT_3D ( 'NONE', #180, #44, #24 ) ;
#138 = VERTEX_POINT ( 'NONE', #220 ) ;
#139 = DIRECTION ( 'NONE',  ( 1.000000000000000000, 0.000000000000000000, 0.000000000000000000 ) ) ;
#140 = SECURITY_CLASSIFICATION ( '', '', #227 ) ;
#141 = PLANE ( 'NONE',  #71 ) ;
#142 = EDGE_CURVE ( 'NONE', #38, #196, #113, .T. ) ;
#143 = CARTESIAN_POINT ( 'NONE',  ( 0.000000000000000000, 0.000000000000000000, 0.000000000000000000 ) ) ;
#144 = CARTESIAN_POINT ( 'NONE',  ( 0.000000000000000000, 0.000000000000000000, 160.0000000000000000 ) ) ;
#145 = AXIS2_PLACEMENT_3D ( 'NONE', #144, #233, #26 ) ;
#146 = CARTESIAN_POINT ( 'NONE',  ( 2.000000000000000000, 2.449293598294706414E-16, 0.000000000000000000 ) ) ;
#147 = CARTESIAN_POINT ( 'NONE',  ( 0.000000000000000000, 0.000000000000000000, 1.500000000000000000 ) ) ;
#148 = APPROVAL_ROLE ( '' ) ;
#149 =( LENGTH_UNIT ( ) NAMED_UNIT ( * ) SI_UNIT ( .MILLI., .METRE. ) );
#150 = CC_DESIGN_PERSON_AND_ORGANIZATION_ASSIGNMENT ( #173, #154, ( #86 ) ) ;
#151 = DIRECTION ( 'NONE',  ( 1.000000000000000000, 0.000000000000000000, 0.000000000000000000 ) ) ;
#152 = DIRECTION ( 'NONE',  ( 0.000000000000000000, 0.000000000000000000, 1.000000000000000000 ) ) ;
#153 = LOCAL_TIME ( 18, 16, 3.000000000000000000, #32 ) ;
#154 = PERSON_AND_ORGANIZATION_ROLE ( 'design_supplier' ) ;
#155 = VERTEX_POINT ( 'NONE', #201 ) ;
#156 = DIRECTION ( 'NONE',  ( 0.000000000000000000, 0.000000000000000000, 1.000000000000000000 ) ) ;
#157 = CC_DESIGN_SECURITY_CLASSIFICATION ( #140, ( #86 ) ) ;
#158 = PLANE ( 'NONE',  #15 ) ;
#159 = PLANE ( 'NONE',  #224 ) ;
#160 = APPROVAL ( #185, 'NEURÈENÝ' ) ;
#161 = CYLINDRICAL_SURFACE ( 'NONE', #101, 0.9000000000000000222 ) ;
#162 = CIRCLE ( 'NONE', #212, 0.9000000000000000222 ) ;
#163 = DIRECTION ( 'NONE',  ( -0.000000000000000000, -0.000000000000000000, -1.000000000000000000 ) ) ;
#164 = COORDINATED_UNIVERSAL_TIME_OFFSET ( 1, 0, .AHEAD. ) ;
#165 =( NAMED_UNIT ( * ) SI_UNIT ( $, .STERADIAN. ) SOLID_ANGLE_UNIT ( ) );
#166 = ADVANCED_FACE ( 'NONE', ( #23 ), #68, .T. ) ;
#167 = EDGE_LOOP ( 'NONE', ( #16, #188, #194, #174 ) ) ;
#168 = DIRECTION ( 'NONE',  ( 0.000000000000000000, 0.000000000000000000, 1.000000000000000000 ) ) ;
#169 = COORDINATED_UNIVERSAL_TIME_OFFSET ( 1, 0, .AHEAD. ) ;
#170 = ADVANCED_FACE ( 'NONE', ( #255 ), #141, .T. ) ;
#171 = PERSON_AND_ORGANIZATION ( #89, #234 ) ;
#172 = ORIENTED_EDGE ( 'NONE', *, *, #142, .F. ) ;
#173 = PERSON_AND_ORGANIZATION ( #89, #234 ) ;
#174 = ORIENTED_EDGE ( 'NONE', *, *, #92, .F. ) ;
#175 = CC_DESIGN_DATE_AND_TIME_ASSIGNMENT ( #30, #247, ( #87 ) ) ;
#176 = PRODUCT ( '1f64', '1f64', '', ( #53 ) ) ;
#177 = CIRCLE ( 'NONE', #6, 0.9000000000000000222 ) ;
#178 = EDGE_CURVE ( 'NONE', #60, #196, #110, .T. ) ;
#179 = DIRECTION ( 'NONE',  ( 1.000000000000000000, 0.000000000000000000, 0.000000000000000000 ) ) ;
#180 = CARTESIAN_POINT ( 'NONE',  ( 0.000000000000000000, 0.000000000000000000, 1.500000000000000000 ) ) ;
#181 = CIRCLE ( 'NONE', #51, 2.000000000000000000 ) ;
#182 = CARTESIAN_POINT ( 'NONE',  ( 0.9000000000000000222, 1.102182119232617788E-16, 160.0000000000000000 ) ) ;
#183 = FACE_OUTER_BOUND ( 'NONE', #100, .T. ) ;
#184 = DIRECTION ( 'NONE',  ( 0.000000000000000000, 0.000000000000000000, 1.000000000000000000 ) ) ;
#185 = APPROVAL_STATUS ( 'not_yet_approved' ) ;
#186 = CARTESIAN_POINT ( 'NONE',  ( 0.000000000000000000, 0.000000000000000000, 160.0000000000000000 ) ) ;
#187 = ORIENTED_EDGE ( 'NONE', *, *, #228, .F. ) ;
#188 = ORIENTED_EDGE ( 'NONE', *, *, #98, .T. ) ;
#189 = DIRECTION ( 'NONE',  ( 1.000000000000000000, 0.000000000000000000, 0.000000000000000000 ) ) ;
#190 = LOCAL_TIME ( 18, 16, 3.000000000000000000, #164 ) ;
#191 = EDGE_LOOP ( 'NONE', ( #208, #245, #54, #95 ) ) ;
#192 = APPROVAL ( #77, 'NEURÈENÝ' ) ;
#193 = DIRECTION ( 'NONE',  ( 0.000000000000000000, 0.000000000000000000, 1.000000000000000000 ) ) ;
#194 = ORIENTED_EDGE ( 'NONE', *, *, #228, .T. ) ;
#195 = LOCAL_TIME ( 18, 16, 3.000000000000000000, #78 ) ;
#196 = VERTEX_POINT ( 'NONE', #12 ) ;
#197 = PERSON_AND_ORGANIZATION_ROLE ( 'creator' ) ;
#198 = ORIENTED_EDGE ( 'NONE', *, *, #108, .T. ) ;
#199 = CALENDAR_DATE ( 2023, 13, 2 ) ;
#200 = CIRCLE ( 'NONE', #215, 2.000000000000000000 ) ;
#201 = CARTESIAN_POINT ( 'NONE',  ( -0.9000000000000000222, 0.000000000000000000, 1.500000000000000000 ) ) ;
#202 = DIRECTION ( 'NONE',  ( 0.000000000000000000, 0.000000000000000000, 1.000000000000000000 ) ) ;
#203 = DIRECTION ( 'NONE',  ( 0.000000000000000000, 0.000000000000000000, 1.000000000000000000 ) ) ;
#204 = CARTESIAN_POINT ( 'NONE',  ( 0.000000000000000000, 0.000000000000000000, 0.000000000000000000 ) ) ;
#205 = EDGE_CURVE ( 'NONE', #138, #60, #133, .T. ) ;
#206 = DIRECTION ( 'NONE',  ( 0.000000000000000000, 0.000000000000000000, 1.000000000000000000 ) ) ;
#207 = DIRECTION ( 'NONE',  ( -0.000000000000000000, -0.000000000000000000, -1.000000000000000000 ) ) ;
#208 = ORIENTED_EDGE ( 'NONE', *, *, #58, .F. ) ;
#209 = APPLICATION_PROTOCOL_DEFINITION ( 'international standard', 'config_control_design', 1994, #230 ) ;
#210 = PERSON_AND_ORGANIZATION ( #89, #234 ) ;
#211 = CALENDAR_DATE ( 2023, 13, 2 ) ;
#212 = AXIS2_PLACEMENT_3D ( 'NONE', #216, #203, #122 ) ;
#213 = PERSON_AND_ORGANIZATION_ROLE ( 'classification_officer' ) ;
#214 = EDGE_CURVE ( 'NONE', #196, #38, #200, .T. ) ;
#215 = AXIS2_PLACEMENT_3D ( 'NONE', #11, #206, #189 ) ;
#216 = CARTESIAN_POINT ( 'NONE',  ( 0.000000000000000000, 0.000000000000000000, 160.0000000000000000 ) ) ;
#217 = CARTESIAN_POINT ( 'NONE',  ( 0.000000000000000000, 0.000000000000000000, 1.500000000000000000 ) ) ;
#218 = CC_DESIGN_PERSON_AND_ORGANIZATION_ASSIGNMENT ( #99, #213, ( #140 ) ) ;
#219 = LINE ( 'NONE', #29, #10 ) ;
#220 = CARTESIAN_POINT ( 'NONE',  ( 2.000000000000000000, 2.449293598294706414E-16, 1.500000000000000000 ) ) ;
#221 = UNCERTAINTY_MEASURE_WITH_UNIT (LENGTH_MEASURE( 1.000000000000000082E-05 ), #149, 'distance_accuracy_value', 'NONE');
#222 = FACE_OUTER_BOUND ( 'NONE', #167, .T. ) ;
#223 =( NAMED_UNIT ( * ) PLANE_ANGLE_UNIT ( ) SI_UNIT ( $, .RADIAN. ) );
#224 = AXIS2_PLACEMENT_3D ( 'NONE', #217, #202, #80 ) ;
#225 = DIRECTION ( 'NONE',  ( 0.000000000000000000, 0.000000000000000000, 1.000000000000000000 ) ) ;
#226 = DIRECTION ( 'NONE',  ( 1.000000000000000000, 0.000000000000000000, -0.000000000000000000 ) ) ;
#227 = SECURITY_CLASSIFICATION_LEVEL ( 'unclassified' ) ;
#228 = EDGE_CURVE ( 'NONE', #56, #155, #177, .T. ) ;
#229 = VERTEX_POINT ( 'NONE', #50 ) ;
#230 = APPLICATION_CONTEXT ( 'configuration controlled 3d designs of mechanical parts and assemblies' ) ;
#231 = ORIENTED_EDGE ( 'NONE', *, *, #205, .T. ) ;
#232 = VERTEX_POINT ( 'NONE', #70 ) ;
#233 = DIRECTION ( 'NONE',  ( -0.000000000000000000, -0.000000000000000000, -1.000000000000000000 ) ) ;
#234 = ORGANIZATION ( 'NEURÈENÝ', 'NEURÈENÝ', '' ) ;
#235 = DIRECTION ( 'NONE',  ( 0.000000000000000000, 0.000000000000000000, 1.000000000000000000 ) ) ;
#236 = CC_DESIGN_DATE_AND_TIME_ASSIGNMENT ( #13, #134, ( #140 ) ) ;
#237 = CARTESIAN_POINT ( 'NONE',  ( 0.9000000000000000222, 1.102182119232617788E-16, 1.500000000000000000 ) ) ;
#238 = CARTESIAN_POINT ( 'NONE',  ( 0.000000000000000000, 0.000000000000000000, 160.0000000000000000 ) ) ;
#239 = APPROVAL_PERSON_ORGANIZATION ( #131, #1, #94 ) ;
#240 = CC_DESIGN_PERSON_AND_ORGANIZATION_ASSIGNMENT ( #135, #197, ( #86 ) ) ;
#241 = CYLINDRICAL_SURFACE ( 'NONE', #137, 2.000000000000000000 ) ;
#242 = CALENDAR_DATE ( 2023, 13, 2 ) ;
#243 = ORIENTED_EDGE ( 'NONE', *, *, #92, .T. ) ;
#244 = CARTESIAN_POINT ( 'NONE',  ( 0.000000000000000000, 0.000000000000000000, 1.500000000000000000 ) ) ;
#245 = ORIENTED_EDGE ( 'NONE', *, *, #9, .F. ) ;
#246 = CALENDAR_DATE ( 2023, 13, 2 ) ;
#247 = DATE_TIME_ROLE ( 'creation_date' ) ;
#248 = CIRCLE ( 'NONE', #31, 0.9000000000000000222 ) ;
#249 = APPROVAL_DATE_TIME ( #117, #192 ) ;
#250 = EDGE_LOOP ( 'NONE', ( #59, #172 ) ) ;
#251 = MANIFOLD_SOLID_BREP ( 'Pøidat vysunutím3', #119 ) ;
#252 = ORIENTED_EDGE ( 'NONE', *, *, #205, .F. ) ;
#253 = SHAPE_DEFINITION_REPRESENTATION ( #136, #121 ) ;
#254 = DIRECTION ( 'NONE',  ( 0.000000000000000000, 0.000000000000000000, 1.000000000000000000 ) ) ;
#255 = FACE_OUTER_BOUND ( 'NONE', #96, .T. ) ;
ENDSEC;
END-ISO-10303-21;
