ISO-10303-21;
HEADER;
FILE_DESCRIPTION (( 'STEP AP203' ),
    '1' );
FILE_NAME ('ee00.STEP',
    '2023-02-13T16:01:26',
    ( '' ),
    ( '' ),
    'SwSTEP 2.0',
    'SolidWorks 2019',
    '' );
FILE_SCHEMA (( 'CONFIG_CONTROL_DESIGN' ));
ENDSEC;

DATA;
#1 = DIRECTION ( 'NONE',  ( 0.000000000000000000, 0.000000000000000000, 1.000000000000000000 ) ) ;
#2 = DIRECTION ( 'NONE',  ( -0.000000000000000000, -0.000000000000000000, -1.000000000000000000 ) ) ;
#3 = AXIS2_PLACEMENT_3D ( 'NONE', #211, #169, #47 ) ;
#4 = FACE_OUTER_BOUND ( 'NONE', #200, .T. ) ;
#5 = DIRECTION ( 'NONE',  ( 0.000000000000000000, 0.000000000000000000, 1.000000000000000000 ) ) ;
#6 = ORIENTED_EDGE ( 'NONE', *, *, #23, .T. ) ;
#7 = CALENDAR_DATE ( 2023, 13, 2 ) ;
#8 = LOCAL_TIME ( 17, 1, 26.00000000000000000, #241 ) ;
#9 = PERSON_AND_ORGANIZATION_ROLE ( 'creator' ) ;
#10 = ORIENTED_EDGE ( 'NONE', *, *, #186, .F. ) ;
#11 = DATE_TIME_ROLE ( 'classification_date' ) ;
#12 = ORIENTED_EDGE ( 'NONE', *, *, #33, .F. ) ;
#13 = PERSON_AND_ORGANIZATION ( #51, #244 ) ;
#14 = PERSON_AND_ORGANIZATION ( #51, #244 ) ;
#15 = VERTEX_POINT ( 'NONE', #173 ) ;
#16 = PRODUCT ( 'ee00', 'ee00', '', ( #149 ) ) ;
#17 = LINE ( 'NONE', #55, #81 ) ;
#18 = CYLINDRICAL_SURFACE ( 'NONE', #90, 5.000000000000000000 ) ;
#19 = CARTESIAN_POINT ( 'NONE',  ( 0.000000000000000000, 0.000000000000000000, 250.0000000000000000 ) ) ;
#20 = ADVANCED_FACE ( 'NONE', ( #37, #204 ), #116, .T. ) ;
#21 = DIRECTION ( 'NONE',  ( -0.000000000000000000, -0.000000000000000000, -1.000000000000000000 ) ) ;
#22 = CYLINDRICAL_SURFACE ( 'NONE', #197, 2.750000000000000000 ) ;
#23 = EDGE_CURVE ( 'NONE', #177, #15, #17, .T. ) ;
#24 = PERSON_AND_ORGANIZATION ( #51, #244 ) ;
#25 = PRODUCT_DEFINITION_SHAPE ( 'NONE', 'NONE',  #110 ) ;
#26 = APPROVAL_ROLE ( '' ) ;
#27 = EDGE_CURVE ( 'NONE', #31, #147, #38, .T. ) ;
#28 = CALENDAR_DATE ( 2023, 13, 2 ) ;
#29 = VERTEX_POINT ( 'NONE', #36 ) ;
#30 = CALENDAR_DATE ( 2023, 13, 2 ) ;
#31 = VERTEX_POINT ( 'NONE', #210 ) ;
#32 = ORIENTED_EDGE ( 'NONE', *, *, #215, .F. ) ;
#33 = EDGE_CURVE ( 'NONE', #147, #85, #226, .T. ) ;
#34 = ORIENTED_EDGE ( 'NONE', *, *, #160, .T. ) ;
#35 = AXIS2_PLACEMENT_3D ( 'NONE', #96, #183, #115 ) ;
#36 = CARTESIAN_POINT ( 'NONE',  ( 5.000000000000000000, 6.123233995736766282E-16, 0.000000000000000000 ) ) ;
#37 = FACE_BOUND ( 'NONE', #49, .T. ) ;
#38 = LINE ( 'NONE', #139, #133 ) ;
#39 = CARTESIAN_POINT ( 'NONE',  ( 5.000000000000000000, 6.123233995736766282E-16, 5.000000000000000000 ) ) ;
#40 = LOCAL_TIME ( 17, 1, 26.00000000000000000, #53 ) ;
#41 = FACE_OUTER_BOUND ( 'NONE', #190, .T. ) ;
#42 = EDGE_CURVE ( 'NONE', #88, #29, #209, .T. ) ;
#43 = CYLINDRICAL_SURFACE ( 'NONE', #3, 5.000000000000000000 ) ;
#44 = DIRECTION ( 'NONE',  ( 1.000000000000000000, 0.000000000000000000, 0.000000000000000000 ) ) ;
#45 = DIRECTION ( 'NONE',  ( 0.000000000000000000, 0.000000000000000000, 1.000000000000000000 ) ) ;
#46 = CARTESIAN_POINT ( 'NONE',  ( 0.000000000000000000, 0.000000000000000000, 0.000000000000000000 ) ) ;
#47 = DIRECTION ( 'NONE',  ( -1.000000000000000000, 0.000000000000000000, 0.000000000000000000 ) ) ;
#48 = CALENDAR_DATE ( 2023, 13, 2 ) ;
#49 = EDGE_LOOP ( 'NONE', ( #201, #12 ) ) ;
#50 = DATE_AND_TIME ( #48, #172 ) ;
#51 = PERSON ( 'NEURÈENÝ', 'NEURÈENÝ', 'NEURÈENÝ', ('NEURÈENÝ'), ('NEURÈENÝ'), ('NEURÈENÝ') ) ;
#52 = SECURITY_CLASSIFICATION ( '', '', #175 ) ;
#53 = COORDINATED_UNIVERSAL_TIME_OFFSET ( 1, 0, .AHEAD. ) ;
#54 = EDGE_LOOP ( 'NONE', ( #154, #113, #131, #106 ) ) ;
#55 = CARTESIAN_POINT ( 'NONE',  ( -5.000000000000000000, 0.000000000000000000, 5.000000000000000000 ) ) ;
#56 = CARTESIAN_POINT ( 'NONE',  ( -5.000000000000000000, 0.000000000000000000, 5.000000000000000000 ) ) ;
#57 = DIRECTION ( 'NONE',  ( 0.000000000000000000, 0.000000000000000000, 1.000000000000000000 ) ) ;
#58 = DIRECTION ( 'NONE',  ( -1.000000000000000000, 0.000000000000000000, 0.000000000000000000 ) ) ;
#59 = DIRECTION ( 'NONE',  ( 1.000000000000000000, 0.000000000000000000, 0.000000000000000000 ) ) ;
#60 = LINE ( 'NONE', #242, #99 ) ;
#61 = CARTESIAN_POINT ( 'NONE',  ( 0.000000000000000000, 0.000000000000000000, 0.000000000000000000 ) ) ;
#62 =( LENGTH_UNIT ( ) NAMED_UNIT ( * ) SI_UNIT ( .MILLI., .METRE. ) );
#63 = EDGE_CURVE ( 'NONE', #177, #88, #191, .T. ) ;
#64 = DATE_TIME_ROLE ( 'creation_date' ) ;
#65 = AXIS2_PLACEMENT_3D ( 'NONE', #19, #118, #222 ) ;
#66 = PERSON_AND_ORGANIZATION_ROLE ( 'design_supplier' ) ;
#67 = ADVANCED_FACE ( 'NONE', ( #4 ), #232, .T. ) ;
#68 = PERSON_AND_ORGANIZATION ( #51, #244 ) ;
#69 = COORDINATED_UNIVERSAL_TIME_OFFSET ( 1, 0, .AHEAD. ) ;
#70 = ORIENTED_EDGE ( 'NONE', *, *, #213, .F. ) ;
#71 = CARTESIAN_POINT ( 'NONE',  ( 2.750000000000000000, 3.367778697655221012E-16, 5.000000000000000000 ) ) ;
#72 = CIRCLE ( 'NONE', #238, 5.000000000000000000 ) ;
#73 = CC_DESIGN_PERSON_AND_ORGANIZATION_ASSIGNMENT ( #228, #249, ( #121 ) ) ;
#74 = FACE_OUTER_BOUND ( 'NONE', #54, .T. ) ;
#75 = ADVANCED_FACE ( 'NONE', ( #138 ), #22, .T. ) ;
#76 = CARTESIAN_POINT ( 'NONE',  ( 0.000000000000000000, 0.000000000000000000, 0.000000000000000000 ) ) ;
#77 = AXIS2_PLACEMENT_3D ( 'NONE', #184, #1, #239 ) ;
#78 = APPROVAL_STATUS ( 'not_yet_approved' ) ;
#79 = DIRECTION ( 'NONE',  ( 0.000000000000000000, 0.000000000000000000, 1.000000000000000000 ) ) ;
#80 =( NAMED_UNIT ( * ) SI_UNIT ( $, .STERADIAN. ) SOLID_ANGLE_UNIT ( ) );
#81 = VECTOR ( 'NONE', #235, 1000.000000000000000 ) ;
#82 = DATE_AND_TIME ( #7, #142 ) ;
#83 = DIRECTION ( 'NONE',  ( -0.000000000000000000, -0.000000000000000000, -1.000000000000000000 ) ) ;
#84 = CC_DESIGN_DATE_AND_TIME_ASSIGNMENT ( #246, #64, ( #110 ) ) ;
#85 = VERTEX_POINT ( 'NONE', #181 ) ;
#86 = CC_DESIGN_APPROVAL ( #122, ( #110 ) ) ;
#87 = VERTEX_POINT ( 'NONE', #93 ) ;
#88 = VERTEX_POINT ( 'NONE', #39 ) ;
#89 = APPROVAL_STATUS ( 'not_yet_approved' ) ;
#90 = AXIS2_PLACEMENT_3D ( 'NONE', #223, #21, #97 ) ;
#91 = ORIENTED_EDGE ( 'NONE', *, *, #42, .F. ) ;
#92 = PRODUCT_RELATED_PRODUCT_CATEGORY ( 'detail', '', ( #16 ) ) ;
#93 = CARTESIAN_POINT ( 'NONE',  ( -2.750000000000000000, 0.000000000000000000, 250.0000000000000000 ) ) ;
#94 = AXIS2_PLACEMENT_3D ( 'NONE', #253, #57, #98 ) ;
#95 = AXIS2_PLACEMENT_3D ( 'NONE', #129, #245, #44 ) ;
#96 = CARTESIAN_POINT ( 'NONE',  ( 0.000000000000000000, 0.000000000000000000, 5.000000000000000000 ) ) ;
#97 = DIRECTION ( 'NONE',  ( -1.000000000000000000, 0.000000000000000000, 0.000000000000000000 ) ) ;
#98 = DIRECTION ( 'NONE',  ( 1.000000000000000000, 0.000000000000000000, 0.000000000000000000 ) ) ;
#99 = VECTOR ( 'NONE', #83, 1000.000000000000000 ) ;
#100 = DIRECTION ( 'NONE',  ( 1.000000000000000000, 0.000000000000000000, 0.000000000000000000 ) ) ;
#101 = ORIENTED_EDGE ( 'NONE', *, *, #165, .F. ) ;
#102 = ORIENTED_EDGE ( 'NONE', *, *, #63, .T. ) ;
#103 = APPROVAL_DATE_TIME ( #82, #122 ) ;
#104 = APPROVAL_PERSON_ORGANIZATION ( #105, #247, #164 ) ;
#105 = PERSON_AND_ORGANIZATION ( #51, #244 ) ;
#106 = ORIENTED_EDGE ( 'NONE', *, *, #220, .T. ) ;
#107 = AXIS2_PLACEMENT_3D ( 'NONE', #221, #161, #156 ) ;
#108 = APPROVAL_PERSON_ORGANIZATION ( #68, #151, #218 ) ;
#109 = MANIFOLD_SOLID_BREP ( 'Pøidat vysunutím3', #128 ) ;
#110 = PRODUCT_DEFINITION ( 'NEZNÁMÝ', '', #121, #199 ) ;
#111 = ORIENTED_EDGE ( 'NONE', *, *, #186, .T. ) ;
#112 = CIRCLE ( 'NONE', #219, 5.000000000000000000 ) ;
#113 = ORIENTED_EDGE ( 'NONE', *, *, #243, .F. ) ;
#114 = DIRECTION ( 'NONE',  ( 0.000000000000000000, 0.000000000000000000, 1.000000000000000000 ) ) ;
#115 = DIRECTION ( 'NONE',  ( 1.000000000000000000, 0.000000000000000000, 0.000000000000000000 ) ) ;
#116 = PLANE ( 'NONE',  #107 ) ;
#117 =( GEOMETRIC_REPRESENTATION_CONTEXT ( 3 ) GLOBAL_UNCERTAINTY_ASSIGNED_CONTEXT ( ( #132 ) ) GLOBAL_UNIT_ASSIGNED_CONTEXT ( ( #62, #123, #80 ) ) REPRESENTATION_CONTEXT ( 'NONE', 'WORKASPACE' ) );
#118 = DIRECTION ( 'NONE',  ( 0.000000000000000000, 0.000000000000000000, 1.000000000000000000 ) ) ;
#119 = CARTESIAN_POINT ( 'NONE',  ( 0.000000000000000000, 0.000000000000000000, 0.000000000000000000 ) ) ;
#120 = CALENDAR_DATE ( 2023, 13, 2 ) ;
#121 = PRODUCT_DEFINITION_FORMATION_WITH_SPECIFIED_SOURCE ( 'LIBOVOLNÝ', '', #16, .NOT_KNOWN. ) ;
#122 = APPROVAL ( #227, 'NEURÈENÝ' ) ;
#123 =( NAMED_UNIT ( * ) PLANE_ANGLE_UNIT ( ) SI_UNIT ( $, .RADIAN. ) );
#124 = DIRECTION ( 'NONE',  ( 1.000000000000000000, 0.000000000000000000, 0.000000000000000000 ) ) ;
#125 = ORIENTED_EDGE ( 'NONE', *, *, #27, .T. ) ;
#126 = APPLICATION_PROTOCOL_DEFINITION ( 'international standard', 'config_control_design', 1994, #153 ) ;
#127 = CC_DESIGN_PERSON_AND_ORGANIZATION_ASSIGNMENT ( #14, #130, ( #52 ) ) ;
#128 = CLOSED_SHELL ( 'NONE', ( #75, #206, #178, #20, #203, #174, #67 ) ) ;
#129 = CARTESIAN_POINT ( 'NONE',  ( 0.000000000000000000, 0.000000000000000000, 250.0000000000000000 ) ) ;
#130 = PERSON_AND_ORGANIZATION_ROLE ( 'classification_officer' ) ;
#131 = ORIENTED_EDGE ( 'NONE', *, *, #215, .T. ) ;
#132 = UNCERTAINTY_MEASURE_WITH_UNIT (LENGTH_MEASURE( 1.000000000000000082E-05 ), #62, 'distance_accuracy_value', 'NONE');
#133 = VECTOR ( 'NONE', #237, 1000.000000000000000 ) ;
#134 = APPROVAL_DATE_TIME ( #230, #151 ) ;
#135 = APPROVAL_DATE_TIME ( #171, #247 ) ;
#136 = EDGE_LOOP ( 'NONE', ( #101, #251, #111, #229 ) ) ;
#137 = CC_DESIGN_APPROVAL ( #247, ( #121 ) ) ;
#138 = FACE_OUTER_BOUND ( 'NONE', #252, .T. ) ;
#139 = CARTESIAN_POINT ( 'NONE',  ( 2.750000000000000000, 3.367778697655221012E-16, 250.0000000000000000 ) ) ;
#140 = FACE_OUTER_BOUND ( 'NONE', #216, .T. ) ;
#141 = CIRCLE ( 'NONE', #77, 5.000000000000000000 ) ;
#142 = LOCAL_TIME ( 17, 1, 26.00000000000000000, #188 ) ;
#143 = PLANE ( 'NONE',  #202 ) ;
#144 = APPLICATION_PROTOCOL_DEFINITION ( 'international standard', 'config_control_design', 1994, #236 ) ;
#145 = CARTESIAN_POINT ( 'NONE',  ( 0.000000000000000000, 0.000000000000000000, 5.000000000000000000 ) ) ;
#146 = LOCAL_TIME ( 17, 1, 26.00000000000000000, #170 ) ;
#147 = VERTEX_POINT ( 'NONE', #71 ) ;
#148 = DIRECTION ( 'NONE',  ( 0.000000000000000000, 0.000000000000000000, 1.000000000000000000 ) ) ;
#149 = MECHANICAL_CONTEXT ( 'NONE', #153, 'mechanical' ) ;
#150 = CC_DESIGN_PERSON_AND_ORGANIZATION_ASSIGNMENT ( #193, #9, ( #110 ) ) ;
#151 = APPROVAL ( #89, 'NEURÈENÝ' ) ;
#152 = ORIENTED_EDGE ( 'NONE', *, *, #165, .T. ) ;
#153 = APPLICATION_CONTEXT ( 'configuration controlled 3d designs of mechanical parts and assemblies' ) ;
#154 = ORIENTED_EDGE ( 'NONE', *, *, #27, .F. ) ;
#155 = CC_DESIGN_PERSON_AND_ORGANIZATION_ASSIGNMENT ( #194, #214, ( #16 ) ) ;
#156 = DIRECTION ( 'NONE',  ( 1.000000000000000000, 0.000000000000000000, -0.000000000000000000 ) ) ;
#157 = CIRCLE ( 'NONE', #65, 2.750000000000000000 ) ;
#158 = CYLINDRICAL_SURFACE ( 'NONE', #163, 2.750000000000000000 ) ;
#159 = DIRECTION ( 'NONE',  ( 1.000000000000000000, 0.000000000000000000, -0.000000000000000000 ) ) ;
#160 = EDGE_CURVE ( 'NONE', #31, #87, #157, .T. ) ;
#161 = DIRECTION ( 'NONE',  ( 0.000000000000000000, 0.000000000000000000, 1.000000000000000000 ) ) ;
#162 = DIRECTION ( 'NONE',  ( 0.000000000000000000, 0.000000000000000000, 1.000000000000000000 ) ) ;
#163 = AXIS2_PLACEMENT_3D ( 'NONE', #234, #185, #58 ) ;
#164 = APPROVAL_ROLE ( '' ) ;
#165 = EDGE_CURVE ( 'NONE', #88, #177, #141, .T. ) ;
#166 = DIRECTION ( 'NONE',  ( 1.000000000000000000, 0.000000000000000000, 0.000000000000000000 ) ) ;
#167 = FACE_OUTER_BOUND ( 'NONE', #136, .T. ) ;
#168 = AXIS2_PLACEMENT_3D ( 'NONE', #225, #114, #159 ) ;
#169 = DIRECTION ( 'NONE',  ( -0.000000000000000000, -0.000000000000000000, -1.000000000000000000 ) ) ;
#170 = COORDINATED_UNIVERSAL_TIME_OFFSET ( 1, 0, .AHEAD. ) ;
#171 = DATE_AND_TIME ( #120, #8 ) ;
#172 = LOCAL_TIME ( 17, 1, 26.00000000000000000, #69 ) ;
#173 = CARTESIAN_POINT ( 'NONE',  ( -5.000000000000000000, 0.000000000000000000, 0.000000000000000000 ) ) ;
#174 = ADVANCED_FACE ( 'NONE', ( #74 ), #158, .T. ) ;
#175 = SECURITY_CLASSIFICATION_LEVEL ( 'unclassified' ) ;
#176 = ORIENTED_EDGE ( 'NONE', *, *, #213, .T. ) ;
#177 = VERTEX_POINT ( 'NONE', #56 ) ;
#178 = ADVANCED_FACE ( 'NONE', ( #140 ), #18, .T. ) ;
#179 = ORIENTED_EDGE ( 'NONE', *, *, #63, .F. ) ;
#180 = ORIENTED_EDGE ( 'NONE', *, *, #33, .T. ) ;
#181 = CARTESIAN_POINT ( 'NONE',  ( -2.750000000000000000, 0.000000000000000000, 5.000000000000000000 ) ) ;
#182 = ADVANCED_BREP_SHAPE_REPRESENTATION ( 'ee00', ( #109, #224 ), #117 ) ;
#183 = DIRECTION ( 'NONE',  ( 0.000000000000000000, 0.000000000000000000, 1.000000000000000000 ) ) ;
#184 = CARTESIAN_POINT ( 'NONE',  ( 0.000000000000000000, 0.000000000000000000, 5.000000000000000000 ) ) ;
#185 = DIRECTION ( 'NONE',  ( -0.000000000000000000, -0.000000000000000000, -1.000000000000000000 ) ) ;
#186 = EDGE_CURVE ( 'NONE', #29, #15, #72, .T. ) ;
#187 = CARTESIAN_POINT ( 'NONE',  ( 5.000000000000000000, 6.123233995736766282E-16, 5.000000000000000000 ) ) ;
#188 = COORDINATED_UNIVERSAL_TIME_OFFSET ( 1, 0, .AHEAD. ) ;
#189 = DIRECTION ( 'NONE',  ( 1.000000000000000000, 0.000000000000000000, -0.000000000000000000 ) ) ;
#190 = EDGE_LOOP ( 'NONE', ( #70, #10 ) ) ;
#191 = CIRCLE ( 'NONE', #94, 5.000000000000000000 ) ;
#192 = CC_DESIGN_APPROVAL ( #151, ( #52 ) ) ;
#193 = PERSON_AND_ORGANIZATION ( #51, #244 ) ;
#194 = PERSON_AND_ORGANIZATION ( #51, #244 ) ;
#195 = CC_DESIGN_DATE_AND_TIME_ASSIGNMENT ( #50, #11, ( #52 ) ) ;
#196 = EDGE_LOOP ( 'NONE', ( #102, #152 ) ) ;
#197 = AXIS2_PLACEMENT_3D ( 'NONE', #254, #207, #205 ) ;
#198 = CC_DESIGN_SECURITY_CLASSIFICATION ( #52, ( #121 ) ) ;
#199 = DESIGN_CONTEXT ( 'detailed design', #236, 'design' ) ;
#200 = EDGE_LOOP ( 'NONE', ( #231, #34 ) ) ;
#201 = ORIENTED_EDGE ( 'NONE', *, *, #220, .F. ) ;
#202 = AXIS2_PLACEMENT_3D ( 'NONE', #119, #79, #189 ) ;
#203 = ADVANCED_FACE ( 'NONE', ( #41 ), #143, .F. ) ;
#204 = FACE_OUTER_BOUND ( 'NONE', #196, .T. ) ;
#205 = DIRECTION ( 'NONE',  ( -1.000000000000000000, 0.000000000000000000, 0.000000000000000000 ) ) ;
#206 = ADVANCED_FACE ( 'NONE', ( #167 ), #43, .T. ) ;
#207 = DIRECTION ( 'NONE',  ( -0.000000000000000000, -0.000000000000000000, -1.000000000000000000 ) ) ;
#208 = APPROVAL_PERSON_ORGANIZATION ( #24, #122, #26 ) ;
#209 = LINE ( 'NONE', #187, #217 ) ;
#210 = CARTESIAN_POINT ( 'NONE',  ( 2.750000000000000000, 3.367778697655221012E-16, 250.0000000000000000 ) ) ;
#211 = CARTESIAN_POINT ( 'NONE',  ( 0.000000000000000000, 0.000000000000000000, 5.000000000000000000 ) ) ;
#212 = ORIENTED_EDGE ( 'NONE', *, *, #160, .F. ) ;
#213 = EDGE_CURVE ( 'NONE', #15, #29, #112, .T. ) ;
#214 = PERSON_AND_ORGANIZATION_ROLE ( 'design_owner' ) ;
#215 = EDGE_CURVE ( 'NONE', #87, #85, #60, .T. ) ;
#216 = EDGE_LOOP ( 'NONE', ( #91, #179, #6, #176 ) ) ;
#217 = VECTOR ( 'NONE', #2, 1000.000000000000000 ) ;
#218 = APPROVAL_ROLE ( '' ) ;
#219 = AXIS2_PLACEMENT_3D ( 'NONE', #61, #148, #166 ) ;
#220 = EDGE_CURVE ( 'NONE', #85, #147, #248, .T. ) ;
#221 = CARTESIAN_POINT ( 'NONE',  ( 0.000000000000000000, 0.000000000000000000, 5.000000000000000000 ) ) ;
#222 = DIRECTION ( 'NONE',  ( 1.000000000000000000, 0.000000000000000000, 0.000000000000000000 ) ) ;
#223 = CARTESIAN_POINT ( 'NONE',  ( 0.000000000000000000, 0.000000000000000000, 5.000000000000000000 ) ) ;
#224 = AXIS2_PLACEMENT_3D ( 'NONE', #46, #45, #124 ) ;
#225 = CARTESIAN_POINT ( 'NONE',  ( 0.000000000000000000, 0.000000000000000000, 250.0000000000000000 ) ) ;
#226 = CIRCLE ( 'NONE', #35, 2.750000000000000000 ) ;
#227 = APPROVAL_STATUS ( 'not_yet_approved' ) ;
#228 = PERSON_AND_ORGANIZATION ( #51, #244 ) ;
#229 = ORIENTED_EDGE ( 'NONE', *, *, #23, .F. ) ;
#230 = DATE_AND_TIME ( #30, #40 ) ;
#231 = ORIENTED_EDGE ( 'NONE', *, *, #243, .T. ) ;
#232 = PLANE ( 'NONE',  #168 ) ;
#233 = CC_DESIGN_PERSON_AND_ORGANIZATION_ASSIGNMENT ( #13, #66, ( #121 ) ) ;
#234 = CARTESIAN_POINT ( 'NONE',  ( 0.000000000000000000, 0.000000000000000000, 250.0000000000000000 ) ) ;
#235 = DIRECTION ( 'NONE',  ( -0.000000000000000000, -0.000000000000000000, -1.000000000000000000 ) ) ;
#236 = APPLICATION_CONTEXT ( 'configuration controlled 3d designs of mechanical parts and assemblies' ) ;
#237 = DIRECTION ( 'NONE',  ( -0.000000000000000000, -0.000000000000000000, -1.000000000000000000 ) ) ;
#238 = AXIS2_PLACEMENT_3D ( 'NONE', #76, #162, #59 ) ;
#239 = DIRECTION ( 'NONE',  ( 1.000000000000000000, 0.000000000000000000, 0.000000000000000000 ) ) ;
#240 = AXIS2_PLACEMENT_3D ( 'NONE', #145, #5, #100 ) ;
#241 = COORDINATED_UNIVERSAL_TIME_OFFSET ( 1, 0, .AHEAD. ) ;
#242 = CARTESIAN_POINT ( 'NONE',  ( -2.750000000000000000, 0.000000000000000000, 250.0000000000000000 ) ) ;
#243 = EDGE_CURVE ( 'NONE', #87, #31, #255, .T. ) ;
#244 = ORGANIZATION ( 'NEURÈENÝ', 'NEURÈENÝ', '' ) ;
#245 = DIRECTION ( 'NONE',  ( 0.000000000000000000, 0.000000000000000000, 1.000000000000000000 ) ) ;
#246 = DATE_AND_TIME ( #28, #146 ) ;
#247 = APPROVAL ( #78, 'NEURÈENÝ' ) ;
#248 = CIRCLE ( 'NONE', #240, 2.750000000000000000 ) ;
#249 = PERSON_AND_ORGANIZATION_ROLE ( 'creator' ) ;
#250 = SHAPE_DEFINITION_REPRESENTATION ( #25, #182 ) ;
#251 = ORIENTED_EDGE ( 'NONE', *, *, #42, .T. ) ;
#252 = EDGE_LOOP ( 'NONE', ( #212, #125, #180, #32 ) ) ;
#253 = CARTESIAN_POINT ( 'NONE',  ( 0.000000000000000000, 0.000000000000000000, 5.000000000000000000 ) ) ;
#254 = CARTESIAN_POINT ( 'NONE',  ( 0.000000000000000000, 0.000000000000000000, 250.0000000000000000 ) ) ;
#255 = CIRCLE ( 'NONE', #95, 2.750000000000000000 ) ;
ENDSEC;
END-ISO-10303-21;
