ISO-10303-21;
HEADER;
FILE_DESCRIPTION (( 'STEP AP203' ),
    '1' );
FILE_NAME ('91d4.STEP',
    '2023-02-13T17:07:17',
    ( '' ),
    ( '' ),
    'SwSTEP 2.0',
    'SolidWorks 2019',
    '' );
FILE_SCHEMA (( 'CONFIG_CONTROL_DESIGN' ));
ENDSEC;

DATA;
#1 = DIRECTION ( 'NONE',  ( 1.000000000000000000, 0.000000000000000000, 0.000000000000000000 ) ) ;
#2 = CIRCLE ( 'NONE', #177, 2.000000000000000000 ) ;
#3 = FACE_OUTER_BOUND ( 'NONE', #170, .T. ) ;
#4 = CC_DESIGN_DATE_AND_TIME_ASSIGNMENT ( #169, #226, ( #234 ) ) ;
#5 = CARTESIAN_POINT ( 'NONE',  ( 0.000000000000000000, 0.000000000000000000, 2.000000000000000000 ) ) ;
#6 = DIRECTION ( 'NONE',  ( 0.000000000000000000, 0.000000000000000000, 1.000000000000000000 ) ) ;
#7 = PLANE ( 'NONE',  #78 ) ;
#8 = MANIFOLD_SOLID_BREP ( 'Pøidat vysunutím3', #185 ) ;
#9 = CC_DESIGN_DATE_AND_TIME_ASSIGNMENT ( #165, #91, ( #102 ) ) ;
#10 =( NAMED_UNIT ( * ) PLANE_ANGLE_UNIT ( ) SI_UNIT ( $, .RADIAN. ) );
#11 = COORDINATED_UNIVERSAL_TIME_OFFSET ( 1, 0, .AHEAD. ) ;
#12 = ORIENTED_EDGE ( 'NONE', *, *, #59, .F. ) ;
#13 = CIRCLE ( 'NONE', #145, 2.000000000000000000 ) ;
#14 = ORIENTED_EDGE ( 'NONE', *, *, #133, .F. ) ;
#15 = VERTEX_POINT ( 'NONE', #211 ) ;
#16 = APPROVAL_STATUS ( 'not_yet_approved' ) ;
#17 = ORIENTED_EDGE ( 'NONE', *, *, #183, .F. ) ;
#18 = DIRECTION ( 'NONE',  ( -0.000000000000000000, -0.000000000000000000, -1.000000000000000000 ) ) ;
#19 = DIRECTION ( 'NONE',  ( 0.000000000000000000, 0.000000000000000000, 1.000000000000000000 ) ) ;
#20 = ADVANCED_FACE ( 'NONE', ( #3 ), #201, .T. ) ;
#21 = CARTESIAN_POINT ( 'NONE',  ( -1.000000000000000000, 0.000000000000000000, 2.000000000000000000 ) ) ;
#22 = VERTEX_POINT ( 'NONE', #61 ) ;
#23 = CARTESIAN_POINT ( 'NONE',  ( 0.000000000000000000, 0.000000000000000000, 315.0000000000000000 ) ) ;
#24 = AXIS2_PLACEMENT_3D ( 'NONE', #199, #18, #176 ) ;
#25 = DIRECTION ( 'NONE',  ( -1.000000000000000000, 0.000000000000000000, 0.000000000000000000 ) ) ;
#26 = CIRCLE ( 'NONE', #36, 1.000000000000000000 ) ;
#27 = DIRECTION ( 'NONE',  ( 0.000000000000000000, 0.000000000000000000, 1.000000000000000000 ) ) ;
#28 = APPROVAL_DATE_TIME ( #243, #82 ) ;
#29 = AXIS2_PLACEMENT_3D ( 'NONE', #23, #198, #86 ) ;
#30 = PERSON_AND_ORGANIZATION_ROLE ( 'design_owner' ) ;
#31 = VERTEX_POINT ( 'NONE', #216 ) ;
#32 = EDGE_LOOP ( 'NONE', ( #17, #154, #123, #193 ) ) ;
#33 = ORIENTED_EDGE ( 'NONE', *, *, #67, .T. ) ;
#34 = ORIENTED_EDGE ( 'NONE', *, *, #56, .T. ) ;
#35 = CARTESIAN_POINT ( 'NONE',  ( 0.000000000000000000, 0.000000000000000000, 0.000000000000000000 ) ) ;
#36 = AXIS2_PLACEMENT_3D ( 'NONE', #5, #6, #156 ) ;
#37 = DIRECTION ( 'NONE',  ( -0.000000000000000000, -0.000000000000000000, -1.000000000000000000 ) ) ;
#38 = ADVANCED_FACE ( 'NONE', ( #138, #128 ), #215, .T. ) ;
#39 = DIRECTION ( 'NONE',  ( 0.000000000000000000, 0.000000000000000000, 1.000000000000000000 ) ) ;
#40 = DIRECTION ( 'NONE',  ( -1.000000000000000000, 0.000000000000000000, 0.000000000000000000 ) ) ;
#41 = EDGE_CURVE ( 'NONE', #172, #31, #196, .T. ) ;
#42 = DIRECTION ( 'NONE',  ( -0.000000000000000000, -0.000000000000000000, -1.000000000000000000 ) ) ;
#43 = FACE_OUTER_BOUND ( 'NONE', #83, .T. ) ;
#44 = APPROVAL_PERSON_ORGANIZATION ( #210, #220, #194 ) ;
#45 = MECHANICAL_CONTEXT ( 'NONE', #236, 'mechanical' ) ;
#46 = CARTESIAN_POINT ( 'NONE',  ( 0.000000000000000000, 0.000000000000000000, 2.000000000000000000 ) ) ;
#47 = CC_DESIGN_PERSON_AND_ORGANIZATION_ASSIGNMENT ( #224, #74, ( #234 ) ) ;
#48 = CALENDAR_DATE ( 2023, 13, 2 ) ;
#49 = SECURITY_CLASSIFICATION_LEVEL ( 'unclassified' ) ;
#50 = AXIS2_PLACEMENT_3D ( 'NONE', #140, #200, #161 ) ;
#51 = COORDINATED_UNIVERSAL_TIME_OFFSET ( 1, 0, .AHEAD. ) ;
#52 = VECTOR ( 'NONE', #42, 1000.000000000000000 ) ;
#53 = ORIENTED_EDGE ( 'NONE', *, *, #133, .T. ) ;
#54 = VECTOR ( 'NONE', #143, 1000.000000000000000 ) ;
#55 = ORIENTED_EDGE ( 'NONE', *, *, #139, .F. ) ;
#56 = EDGE_CURVE ( 'NONE', #15, #132, #190, .T. ) ;
#57 = FACE_OUTER_BOUND ( 'NONE', #32, .T. ) ;
#58 = APPROVAL_DATE_TIME ( #255, #220 ) ;
#59 = EDGE_CURVE ( 'NONE', #132, #15, #13, .T. ) ;
#60 = APPROVAL_PERSON_ORGANIZATION ( #205, #206, #150 ) ;
#61 = CARTESIAN_POINT ( 'NONE',  ( 1.000000000000000000, 1.224646799147353207E-16, 2.000000000000000000 ) ) ;
#62 = CARTESIAN_POINT ( 'NONE',  ( 0.000000000000000000, 0.000000000000000000, 315.0000000000000000 ) ) ;
#63 = ORIENTED_EDGE ( 'NONE', *, *, #41, .F. ) ;
#64 = AXIS2_PLACEMENT_3D ( 'NONE', #126, #85, #87 ) ;
#65 = DIRECTION ( 'NONE',  ( 1.000000000000000000, 0.000000000000000000, -0.000000000000000000 ) ) ;
#66 = VECTOR ( 'NONE', #116, 1000.000000000000000 ) ;
#67 = EDGE_CURVE ( 'NONE', #31, #172, #135, .T. ) ;
#68 = CARTESIAN_POINT ( 'NONE',  ( 1.000000000000000000, 1.224646799147353207E-16, 315.0000000000000000 ) ) ;
#69 = CARTESIAN_POINT ( 'NONE',  ( 0.000000000000000000, 0.000000000000000000, 0.000000000000000000 ) ) ;
#70 = CARTESIAN_POINT ( 'NONE',  ( 2.000000000000000000, 2.449293598294706414E-16, 2.000000000000000000 ) ) ;
#71 = VECTOR ( 'NONE', #84, 1000.000000000000000 ) ;
#72 = DIRECTION ( 'NONE',  ( 1.000000000000000000, 0.000000000000000000, 0.000000000000000000 ) ) ;
#73 = CALENDAR_DATE ( 2023, 13, 2 ) ;
#74 = PERSON_AND_ORGANIZATION_ROLE ( 'classification_officer' ) ;
#75 = ADVANCED_FACE ( 'NONE', ( #134 ), #142, .T. ) ;
#76 = EDGE_LOOP ( 'NONE', ( #174, #14 ) ) ;
#77 = APPROVAL_DATE_TIME ( #187, #206 ) ;
#78 = AXIS2_PLACEMENT_3D ( 'NONE', #115, #89, #164 ) ;
#79 = LOCAL_TIME ( 18, 7, 17.00000000000000000, #11 ) ;
#80 = ORIENTED_EDGE ( 'NONE', *, *, #114, .F. ) ;
#81 = VERTEX_POINT ( 'NONE', #160 ) ;
#82 = APPROVAL ( #222, 'NEURÈENÝ' ) ;
#83 = EDGE_LOOP ( 'NONE', ( #232, #12 ) ) ;
#84 = DIRECTION ( 'NONE',  ( -0.000000000000000000, -0.000000000000000000, -1.000000000000000000 ) ) ;
#85 = DIRECTION ( 'NONE',  ( 0.000000000000000000, 0.000000000000000000, 1.000000000000000000 ) ) ;
#86 = DIRECTION ( 'NONE',  ( 1.000000000000000000, 0.000000000000000000, 0.000000000000000000 ) ) ;
#87 = DIRECTION ( 'NONE',  ( 1.000000000000000000, 0.000000000000000000, 0.000000000000000000 ) ) ;
#88 = CARTESIAN_POINT ( 'NONE',  ( 0.000000000000000000, 0.000000000000000000, 315.0000000000000000 ) ) ;
#89 = DIRECTION ( 'NONE',  ( 0.000000000000000000, 0.000000000000000000, 1.000000000000000000 ) ) ;
#90 = DIRECTION ( 'NONE',  ( 0.000000000000000000, 0.000000000000000000, 1.000000000000000000 ) ) ;
#91 = DATE_TIME_ROLE ( 'creation_date' ) ;
#92 = AXIS2_PLACEMENT_3D ( 'NONE', #62, #39, #1 ) ;
#93 = DIRECTION ( 'NONE',  ( -0.000000000000000000, -0.000000000000000000, -1.000000000000000000 ) ) ;
#94 = CC_DESIGN_APPROVAL ( #220, ( #234 ) ) ;
#95 = APPLICATION_PROTOCOL_DEFINITION ( 'international standard', 'config_control_design', 1994, #236 ) ;
#96 = EDGE_CURVE ( 'NONE', #122, #22, #104, .T. ) ;
#97 = APPROVAL_STATUS ( 'not_yet_approved' ) ;
#98 = CALENDAR_DATE ( 2023, 13, 2 ) ;
#99 = ORIENTED_EDGE ( 'NONE', *, *, #159, .T. ) ;
#100 = LOCAL_TIME ( 18, 7, 17.00000000000000000, #51 ) ;
#101 = APPLICATION_CONTEXT ( 'configuration controlled 3d designs of mechanical parts and assemblies' ) ;
#102 = PRODUCT_DEFINITION ( 'NEZNÁMÝ', '', #213, #218 ) ;
#103 = ORIENTED_EDGE ( 'NONE', *, *, #246, .T. ) ;
#104 = CIRCLE ( 'NONE', #50, 1.000000000000000000 ) ;
#105 = SHAPE_DEFINITION_REPRESENTATION ( #131, #253 ) ;
#106 = CC_DESIGN_PERSON_AND_ORGANIZATION_ASSIGNMENT ( #184, #223, ( #213 ) ) ;
#107 = DIRECTION ( 'NONE',  ( -0.000000000000000000, -0.000000000000000000, -1.000000000000000000 ) ) ;
#108 = CARTESIAN_POINT ( 'NONE',  ( 0.000000000000000000, 0.000000000000000000, 2.000000000000000000 ) ) ;
#109 = CARTESIAN_POINT ( 'NONE',  ( 0.000000000000000000, 0.000000000000000000, 2.000000000000000000 ) ) ;
#110 = ADVANCED_FACE ( 'NONE', ( #235 ), #111, .T. ) ;
#111 = CYLINDRICAL_SURFACE ( 'NONE', #221, 2.000000000000000000 ) ;
#112 = LINE ( 'NONE', #254, #71 ) ;
#113 = LINE ( 'NONE', #70, #66 ) ;
#114 = EDGE_CURVE ( 'NONE', #81, #195, #2, .T. ) ;
#115 = CARTESIAN_POINT ( 'NONE',  ( 0.000000000000000000, 0.000000000000000000, 315.0000000000000000 ) ) ;
#116 = DIRECTION ( 'NONE',  ( -0.000000000000000000, -0.000000000000000000, -1.000000000000000000 ) ) ;
#117 = PERSON_AND_ORGANIZATION ( #233, #130 ) ;
#118 = AXIS2_PLACEMENT_3D ( 'NONE', #69, #148, #181 ) ;
#119 = PRODUCT_RELATED_PRODUCT_CATEGORY ( 'detail', '', ( #188 ) ) ;
#120 = PERSON_AND_ORGANIZATION ( #233, #130 ) ;
#121 = ORIENTED_EDGE ( 'NONE', *, *, #41, .T. ) ;
#122 = VERTEX_POINT ( 'NONE', #21 ) ;
#123 = ORIENTED_EDGE ( 'NONE', *, *, #149, .T. ) ;
#124 = UNCERTAINTY_MEASURE_WITH_UNIT (LENGTH_MEASURE( 1.000000000000000082E-05 ), #248, 'distance_accuracy_value', 'NONE');
#125 = CARTESIAN_POINT ( 'NONE',  ( 0.000000000000000000, 0.000000000000000000, 2.000000000000000000 ) ) ;
#126 = CARTESIAN_POINT ( 'NONE',  ( 0.000000000000000000, 0.000000000000000000, 0.000000000000000000 ) ) ;
#127 = CARTESIAN_POINT ( 'NONE',  ( 0.000000000000000000, 0.000000000000000000, 2.000000000000000000 ) ) ;
#128 = FACE_OUTER_BOUND ( 'NONE', #214, .T. ) ;
#129 = CYLINDRICAL_SURFACE ( 'NONE', #197, 1.000000000000000000 ) ;
#130 = ORGANIZATION ( 'NEURÈENÝ', 'NEURÈENÝ', '' ) ;
#131 = PRODUCT_DEFINITION_SHAPE ( 'NONE', 'NONE',  #102 ) ;
#132 = VERTEX_POINT ( 'NONE', #178 ) ;
#133 = EDGE_CURVE ( 'NONE', #22, #122, #26, .T. ) ;
#134 = FACE_OUTER_BOUND ( 'NONE', #152, .T. ) ;
#135 = CIRCLE ( 'NONE', #29, 1.000000000000000000 ) ;
#136 = APPROVAL_PERSON_ORGANIZATION ( #245, #82, #168 ) ;
#137 = DIRECTION ( 'NONE',  ( 1.000000000000000000, 0.000000000000000000, 0.000000000000000000 ) ) ;
#138 = FACE_BOUND ( 'NONE', #76, .T. ) ;
#139 = EDGE_CURVE ( 'NONE', #195, #15, #157, .T. ) ;
#140 = CARTESIAN_POINT ( 'NONE',  ( 0.000000000000000000, 0.000000000000000000, 2.000000000000000000 ) ) ;
#141 = AXIS2_PLACEMENT_3D ( 'NONE', #108, #239, #65 ) ;
#142 = CYLINDRICAL_SURFACE ( 'NONE', #24, 1.000000000000000000 ) ;
#143 = DIRECTION ( 'NONE',  ( -0.000000000000000000, -0.000000000000000000, -1.000000000000000000 ) ) ;
#144 =( NAMED_UNIT ( * ) SI_UNIT ( $, .STERADIAN. ) SOLID_ANGLE_UNIT ( ) );
#145 = AXIS2_PLACEMENT_3D ( 'NONE', #35, #19, #137 ) ;
#146 = FACE_OUTER_BOUND ( 'NONE', #191, .T. ) ;
#147 = CC_DESIGN_SECURITY_CLASSIFICATION ( #234, ( #213 ) ) ;
#148 = DIRECTION ( 'NONE',  ( 0.000000000000000000, 0.000000000000000000, 1.000000000000000000 ) ) ;
#149 = EDGE_CURVE ( 'NONE', #31, #122, #112, .T. ) ;
#150 = APPROVAL_ROLE ( '' ) ;
#151 = APPLICATION_PROTOCOL_DEFINITION ( 'international standard', 'config_control_design', 1994, #101 ) ;
#152 = EDGE_LOOP ( 'NONE', ( #63, #237, #53, #252 ) ) ;
#153 = COORDINATED_UNIVERSAL_TIME_OFFSET ( 1, 0, .AHEAD. ) ;
#154 = ORIENTED_EDGE ( 'NONE', *, *, #67, .F. ) ;
#155 = ADVANCED_FACE ( 'NONE', ( #57 ), #129, .T. ) ;
#156 = DIRECTION ( 'NONE',  ( 1.000000000000000000, 0.000000000000000000, 0.000000000000000000 ) ) ;
#157 = LINE ( 'NONE', #217, #52 ) ;
#158 = LOCAL_TIME ( 18, 7, 17.00000000000000000, #207 ) ;
#159 = EDGE_CURVE ( 'NONE', #81, #132, #113, .T. ) ;
#160 = CARTESIAN_POINT ( 'NONE',  ( 2.000000000000000000, 2.449293598294706414E-16, 2.000000000000000000 ) ) ;
#161 = DIRECTION ( 'NONE',  ( 1.000000000000000000, 0.000000000000000000, 0.000000000000000000 ) ) ;
#162 = ADVANCED_FACE ( 'NONE', ( #146 ), #7, .T. ) ;
#163 = AXIS2_PLACEMENT_3D ( 'NONE', #46, #27, #72 ) ;
#164 = DIRECTION ( 'NONE',  ( 1.000000000000000000, 0.000000000000000000, -0.000000000000000000 ) ) ;
#165 = DATE_AND_TIME ( #73, #180 ) ;
#166 = LINE ( 'NONE', #68, #54 ) ;
#167 = PERSON_AND_ORGANIZATION_ROLE ( 'creator' ) ;
#168 = APPROVAL_ROLE ( '' ) ;
#169 = DATE_AND_TIME ( #98, #158 ) ;
#170 = EDGE_LOOP ( 'NONE', ( #80, #99, #209, #55 ) ) ;
#171 = AXIS2_PLACEMENT_3D ( 'NONE', #244, #90, #186 ) ;
#172 = VERTEX_POINT ( 'NONE', #241 ) ;
#173 = ORIENTED_EDGE ( 'NONE', *, *, #139, .T. ) ;
#174 = ORIENTED_EDGE ( 'NONE', *, *, #96, .F. ) ;
#175 = ORIENTED_EDGE ( 'NONE', *, *, #159, .F. ) ;
#176 = DIRECTION ( 'NONE',  ( -1.000000000000000000, 0.000000000000000000, 0.000000000000000000 ) ) ;
#177 = AXIS2_PLACEMENT_3D ( 'NONE', #127, #230, #179 ) ;
#178 = CARTESIAN_POINT ( 'NONE',  ( 2.000000000000000000, 2.449293598294706414E-16, 0.000000000000000000 ) ) ;
#179 = DIRECTION ( 'NONE',  ( 1.000000000000000000, 0.000000000000000000, 0.000000000000000000 ) ) ;
#180 = LOCAL_TIME ( 18, 7, 17.00000000000000000, #153 ) ;
#181 = DIRECTION ( 'NONE',  ( 1.000000000000000000, 0.000000000000000000, 0.000000000000000000 ) ) ;
#182 = PLANE ( 'NONE',  #171 ) ;
#183 = EDGE_CURVE ( 'NONE', #172, #22, #166, .T. ) ;
#184 = PERSON_AND_ORGANIZATION ( #233, #130 ) ;
#185 = CLOSED_SHELL ( 'NONE', ( #75, #20, #110, #38, #202, #155, #162 ) ) ;
#186 = DIRECTION ( 'NONE',  ( 1.000000000000000000, 0.000000000000000000, -0.000000000000000000 ) ) ;
#187 = DATE_AND_TIME ( #242, #79 ) ;
#188 = PRODUCT ( '91d4', '91d4', '', ( #45 ) ) ;
#189 = PERSON_AND_ORGANIZATION ( #233, #130 ) ;
#190 = CIRCLE ( 'NONE', #64, 2.000000000000000000 ) ;
#191 = EDGE_LOOP ( 'NONE', ( #33, #121 ) ) ;
#192 = LOCAL_TIME ( 18, 7, 17.00000000000000000, #227 ) ;
#193 = ORIENTED_EDGE ( 'NONE', *, *, #96, .T. ) ;
#194 = APPROVAL_ROLE ( '' ) ;
#195 = VERTEX_POINT ( 'NONE', #219 ) ;
#196 = CIRCLE ( 'NONE', #92, 1.000000000000000000 ) ;
#197 = AXIS2_PLACEMENT_3D ( 'NONE', #88, #93, #25 ) ;
#198 = DIRECTION ( 'NONE',  ( 0.000000000000000000, 0.000000000000000000, 1.000000000000000000 ) ) ;
#199 = CARTESIAN_POINT ( 'NONE',  ( 0.000000000000000000, 0.000000000000000000, 315.0000000000000000 ) ) ;
#200 = DIRECTION ( 'NONE',  ( 0.000000000000000000, 0.000000000000000000, 1.000000000000000000 ) ) ;
#201 = CYLINDRICAL_SURFACE ( 'NONE', #249, 2.000000000000000000 ) ;
#202 = ADVANCED_FACE ( 'NONE', ( #43 ), #182, .F. ) ;
#203 = DIRECTION ( 'NONE',  ( -1.000000000000000000, 0.000000000000000000, 0.000000000000000000 ) ) ;
#204 = CC_DESIGN_APPROVAL ( #206, ( #102 ) ) ;
#205 = PERSON_AND_ORGANIZATION ( #233, #130 ) ;
#206 = APPROVAL ( #97, 'NEURÈENÝ' ) ;
#207 = COORDINATED_UNIVERSAL_TIME_OFFSET ( 1, 0, .AHEAD. ) ;
#208 = CC_DESIGN_PERSON_AND_ORGANIZATION_ASSIGNMENT ( #120, #30, ( #188 ) ) ;
#209 = ORIENTED_EDGE ( 'NONE', *, *, #59, .T. ) ;
#210 = PERSON_AND_ORGANIZATION ( #233, #130 ) ;
#211 = CARTESIAN_POINT ( 'NONE',  ( -2.000000000000000000, 0.000000000000000000, 0.000000000000000000 ) ) ;
#212 = CIRCLE ( 'NONE', #163, 2.000000000000000000 ) ;
#213 = PRODUCT_DEFINITION_FORMATION_WITH_SPECIFIED_SOURCE ( 'LIBOVOLNÝ', '', #188, .NOT_KNOWN. ) ;
#214 = EDGE_LOOP ( 'NONE', ( #103, #225 ) ) ;
#215 = PLANE ( 'NONE',  #141 ) ;
#216 = CARTESIAN_POINT ( 'NONE',  ( -1.000000000000000000, 0.000000000000000000, 315.0000000000000000 ) ) ;
#217 = CARTESIAN_POINT ( 'NONE',  ( -2.000000000000000000, 0.000000000000000000, 2.000000000000000000 ) ) ;
#218 = DESIGN_CONTEXT ( 'detailed design', #101, 'design' ) ;
#219 = CARTESIAN_POINT ( 'NONE',  ( -2.000000000000000000, 0.000000000000000000, 2.000000000000000000 ) ) ;
#220 = APPROVAL ( #16, 'NEURÈENÝ' ) ;
#221 = AXIS2_PLACEMENT_3D ( 'NONE', #109, #107, #40 ) ;
#222 = APPROVAL_STATUS ( 'not_yet_approved' ) ;
#223 = PERSON_AND_ORGANIZATION_ROLE ( 'creator' ) ;
#224 = PERSON_AND_ORGANIZATION ( #233, #130 ) ;
#225 = ORIENTED_EDGE ( 'NONE', *, *, #114, .T. ) ;
#226 = DATE_TIME_ROLE ( 'classification_date' ) ;
#227 = COORDINATED_UNIVERSAL_TIME_OFFSET ( 1, 0, .AHEAD. ) ;
#228 = EDGE_LOOP ( 'NONE', ( #175, #251, #173, #34 ) ) ;
#229 = CC_DESIGN_PERSON_AND_ORGANIZATION_ASSIGNMENT ( #117, #167, ( #102 ) ) ;
#230 = DIRECTION ( 'NONE',  ( 0.000000000000000000, 0.000000000000000000, 1.000000000000000000 ) ) ;
#231 = CALENDAR_DATE ( 2023, 13, 2 ) ;
#232 = ORIENTED_EDGE ( 'NONE', *, *, #56, .F. ) ;
#233 = PERSON ( 'NEURÈENÝ', 'NEURÈENÝ', 'NEURÈENÝ', ('NEURÈENÝ'), ('NEURÈENÝ'), ('NEURÈENÝ') ) ;
#234 = SECURITY_CLASSIFICATION ( '', '', #49 ) ;
#235 = FACE_OUTER_BOUND ( 'NONE', #228, .T. ) ;
#236 = APPLICATION_CONTEXT ( 'configuration controlled 3d designs of mechanical parts and assemblies' ) ;
#237 = ORIENTED_EDGE ( 'NONE', *, *, #183, .T. ) ;
#238 = CC_DESIGN_PERSON_AND_ORGANIZATION_ASSIGNMENT ( #189, #247, ( #213 ) ) ;
#239 = DIRECTION ( 'NONE',  ( 0.000000000000000000, 0.000000000000000000, 1.000000000000000000 ) ) ;
#240 = CC_DESIGN_APPROVAL ( #82, ( #213 ) ) ;
#241 = CARTESIAN_POINT ( 'NONE',  ( 1.000000000000000000, 1.224646799147353207E-16, 315.0000000000000000 ) ) ;
#242 = CALENDAR_DATE ( 2023, 13, 2 ) ;
#243 = DATE_AND_TIME ( #48, #100 ) ;
#244 = CARTESIAN_POINT ( 'NONE',  ( 0.000000000000000000, 0.000000000000000000, 0.000000000000000000 ) ) ;
#245 = PERSON_AND_ORGANIZATION ( #233, #130 ) ;
#246 = EDGE_CURVE ( 'NONE', #195, #81, #212, .T. ) ;
#247 = PERSON_AND_ORGANIZATION_ROLE ( 'design_supplier' ) ;
#248 =( LENGTH_UNIT ( ) NAMED_UNIT ( * ) SI_UNIT ( .MILLI., .METRE. ) );
#249 = AXIS2_PLACEMENT_3D ( 'NONE', #125, #37, #203 ) ;
#250 =( GEOMETRIC_REPRESENTATION_CONTEXT ( 3 ) GLOBAL_UNCERTAINTY_ASSIGNED_CONTEXT ( ( #124 ) ) GLOBAL_UNIT_ASSIGNED_CONTEXT ( ( #248, #10, #144 ) ) REPRESENTATION_CONTEXT ( 'NONE', 'WORKASPACE' ) );
#251 = ORIENTED_EDGE ( 'NONE', *, *, #246, .F. ) ;
#252 = ORIENTED_EDGE ( 'NONE', *, *, #149, .F. ) ;
#253 = ADVANCED_BREP_SHAPE_REPRESENTATION ( '91d4', ( #8, #118 ), #250 ) ;
#254 = CARTESIAN_POINT ( 'NONE',  ( -1.000000000000000000, 0.000000000000000000, 315.0000000000000000 ) ) ;
#255 = DATE_AND_TIME ( #231, #192 ) ;
ENDSEC;
END-ISO-10303-21;
