ISO-10303-21;
HEADER;
FILE_DESCRIPTION (( 'STEP AP203' ),
    '1' );
FILE_NAME ('28ee.STEP',
    '2023-02-13T09:45:36',
    ( '' ),
    ( '' ),
    'SwSTEP 2.0',
    'SolidWorks 2019',
    '' );
FILE_SCHEMA (( 'CONFIG_CONTROL_DESIGN' ));
ENDSEC;

DATA;
#1 = APPROVAL_ROLE ( '' ) ;
#2 = EDGE_CURVE ( 'NONE', #98, #129, #64, .T. ) ;
#3 = FACE_OUTER_BOUND ( 'NONE', #91, .T. ) ;
#4 = AXIS2_PLACEMENT_3D ( 'NONE', #28, #207, #47 ) ;
#5 = DIRECTION ( 'NONE',  ( 1.000000000000000000, 0.000000000000000000, 0.000000000000000000 ) ) ;
#6 = ORIENTED_EDGE ( 'NONE', *, *, #150, .T. ) ;
#7 = APPROVAL_ROLE ( '' ) ;
#8 = FACE_OUTER_BOUND ( 'NONE', #214, .T. ) ;
#9 = DIRECTION ( 'NONE',  ( 0.000000000000000000, 0.000000000000000000, 1.000000000000000000 ) ) ;
#10 = ORIENTED_EDGE ( 'NONE', *, *, #117, .F. ) ;
#11 = PERSON_AND_ORGANIZATION_ROLE ( 'classification_officer' ) ;
#12 = PERSON ( 'NEURÈENÝ', 'NEURÈENÝ', 'NEURÈENÝ', ('NEURÈENÝ'), ('NEURÈENÝ'), ('NEURÈENÝ') ) ;
#13 = LOCAL_TIME ( 10, 45, 36.00000000000000000, #33 ) ;
#14 = PLANE ( 'NONE',  #57 ) ;
#15 = VERTEX_POINT ( 'NONE', #17 ) ;
#16 = PERSON_AND_ORGANIZATION_ROLE ( 'design_supplier' ) ;
#17 = CARTESIAN_POINT ( 'NONE',  ( 11.00000000000000000, 1.347111479062088405E-15, 7.000000000000000000 ) ) ;
#18 = CYLINDRICAL_SURFACE ( 'NONE', #172, 11.00000000000000000 ) ;
#19 = EDGE_CURVE ( 'NONE', #60, #35, #236, .T. ) ;
#20 = CARTESIAN_POINT ( 'NONE',  ( 7.000000000000000888, 8.572527594031474176E-16, 800.0000000000000000 ) ) ;
#21 = AXIS2_PLACEMENT_3D ( 'NONE', #66, #197, #174 ) ;
#22 = FACE_OUTER_BOUND ( 'NONE', #37, .T. ) ;
#23 = APPROVAL_DATE_TIME ( #39, #42 ) ;
#24 = EDGE_CURVE ( 'NONE', #38, #224, #36, .T. ) ;
#25 = PERSON_AND_ORGANIZATION ( #12, #70 ) ;
#26 = DIRECTION ( 'NONE',  ( 0.000000000000000000, 0.000000000000000000, 1.000000000000000000 ) ) ;
#27 = CALENDAR_DATE ( 2023, 13, 2 ) ;
#28 = CARTESIAN_POINT ( 'NONE',  ( 0.000000000000000000, 0.000000000000000000, 7.000000000000000000 ) ) ;
#29 = VECTOR ( 'NONE', #114, 1000.000000000000000 ) ;
#30 = PERSON_AND_ORGANIZATION_ROLE ( 'design_owner' ) ;
#31 = FACE_BOUND ( 'NONE', #142, .T. ) ;
#32 = ORIENTED_EDGE ( 'NONE', *, *, #24, .F. ) ;
#33 = COORDINATED_UNIVERSAL_TIME_OFFSET ( 1, 0, .AHEAD. ) ;
#34 = EDGE_CURVE ( 'NONE', #60, #224, #219, .T. ) ;
#35 = VERTEX_POINT ( 'NONE', #238 ) ;
#36 = CIRCLE ( 'NONE', #228, 7.000000000000000888 ) ;
#37 = EDGE_LOOP ( 'NONE', ( #213, #252, #168, #126 ) ) ;
#38 = VERTEX_POINT ( 'NONE', #190 ) ;
#39 = DATE_AND_TIME ( #46, #194 ) ;
#40 = CC_DESIGN_APPROVAL ( #196, ( #77 ) ) ;
#41 = DIRECTION ( 'NONE',  ( -0.000000000000000000, -0.000000000000000000, -1.000000000000000000 ) ) ;
#42 = APPROVAL ( #199, 'NEURÈENÝ' ) ;
#43 = MANIFOLD_SOLID_BREP ( 'Pøidat vysunutím3', #179 ) ;
#44 = FACE_OUTER_BOUND ( 'NONE', #61, .T. ) ;
#45 = CARTESIAN_POINT ( 'NONE',  ( 0.000000000000000000, 0.000000000000000000, 7.000000000000000000 ) ) ;
#46 = CALENDAR_DATE ( 2023, 13, 2 ) ;
#47 = DIRECTION ( 'NONE',  ( 1.000000000000000000, 0.000000000000000000, -0.000000000000000000 ) ) ;
#48 = CIRCLE ( 'NONE', #212, 11.00000000000000000 ) ;
#49 = PRODUCT_RELATED_PRODUCT_CATEGORY ( 'detail', '', ( #94 ) ) ;
#50 = APPLICATION_CONTEXT ( 'configuration controlled 3d designs of mechanical parts and assemblies' ) ;
#51 = PERSON_AND_ORGANIZATION ( #12, #70 ) ;
#52 = AXIS2_PLACEMENT_3D ( 'NONE', #254, #110, #84 ) ;
#53 = CC_DESIGN_APPROVAL ( #42, ( #195 ) ) ;
#54 = CC_DESIGN_PERSON_AND_ORGANIZATION_ASSIGNMENT ( #211, #16, ( #77 ) ) ;
#55 = PERSON_AND_ORGANIZATION ( #12, #70 ) ;
#56 = CC_DESIGN_SECURITY_CLASSIFICATION ( #195, ( #77 ) ) ;
#57 = AXIS2_PLACEMENT_3D ( 'NONE', #59, #9, #167 ) ;
#58 = COORDINATED_UNIVERSAL_TIME_OFFSET ( 1, 0, .AHEAD. ) ;
#59 = CARTESIAN_POINT ( 'NONE',  ( 0.000000000000000000, 0.000000000000000000, 800.0000000000000000 ) ) ;
#60 = VERTEX_POINT ( 'NONE', #97 ) ;
#61 = EDGE_LOOP ( 'NONE', ( #95, #10 ) ) ;
#62 = ORIENTED_EDGE ( 'NONE', *, *, #206, .T. ) ;
#63 = DIRECTION ( 'NONE',  ( 1.000000000000000000, 0.000000000000000000, 0.000000000000000000 ) ) ;
#64 = LINE ( 'NONE', #152, #245 ) ;
#65 = DIRECTION ( 'NONE',  ( -0.000000000000000000, -0.000000000000000000, -1.000000000000000000 ) ) ;
#66 = CARTESIAN_POINT ( 'NONE',  ( 0.000000000000000000, 0.000000000000000000, 0.000000000000000000 ) ) ;
#67 = ORIENTED_EDGE ( 'NONE', *, *, #24, .T. ) ;
#68 = PLANE ( 'NONE',  #4 ) ;
#69 = COORDINATED_UNIVERSAL_TIME_OFFSET ( 1, 0, .AHEAD. ) ;
#70 = ORGANIZATION ( 'NEURÈENÝ', 'NEURÈENÝ', '' ) ;
#71 = DATE_AND_TIME ( #161, #189 ) ;
#72 =( LENGTH_UNIT ( ) NAMED_UNIT ( * ) SI_UNIT ( .MILLI., .METRE. ) );
#73 = EDGE_LOOP ( 'NONE', ( #88, #185, #67, #108 ) ) ;
#74 = DATE_TIME_ROLE ( 'classification_date' ) ;
#75 = LOCAL_TIME ( 10, 45, 36.00000000000000000, #69 ) ;
#76 = VECTOR ( 'NONE', #82, 1000.000000000000000 ) ;
#77 = PRODUCT_DEFINITION_FORMATION_WITH_SPECIFIED_SOURCE ( 'LIBOVOLNÝ', '', #94, .NOT_KNOWN. ) ;
#78 = CARTESIAN_POINT ( 'NONE',  ( -7.000000000000000888, 0.000000000000000000, 800.0000000000000000 ) ) ;
#79 = CALENDAR_DATE ( 2023, 13, 2 ) ;
#80 = DIRECTION ( 'NONE',  ( 1.000000000000000000, 0.000000000000000000, 0.000000000000000000 ) ) ;
#81 = SHAPE_DEFINITION_REPRESENTATION ( #192, #155 ) ;
#82 = DIRECTION ( 'NONE',  ( -0.000000000000000000, -0.000000000000000000, -1.000000000000000000 ) ) ;
#83 = ORIENTED_EDGE ( 'NONE', *, *, #2, .F. ) ;
#84 = DIRECTION ( 'NONE',  ( 1.000000000000000000, 0.000000000000000000, 0.000000000000000000 ) ) ;
#85 = DIRECTION ( 'NONE',  ( 1.000000000000000000, 0.000000000000000000, -0.000000000000000000 ) ) ;
#86 = CIRCLE ( 'NONE', #21, 11.00000000000000000 ) ;
#87 = DIRECTION ( 'NONE',  ( -0.000000000000000000, -0.000000000000000000, -1.000000000000000000 ) ) ;
#88 = ORIENTED_EDGE ( 'NONE', *, *, #206, .F. ) ;
#89 = DATE_TIME_ROLE ( 'creation_date' ) ;
#90 = CC_DESIGN_DATE_AND_TIME_ASSIGNMENT ( #147, #74, ( #195 ) ) ;
#91 = EDGE_LOOP ( 'NONE', ( #162, #62 ) ) ;
#92 = COORDINATED_UNIVERSAL_TIME_OFFSET ( 1, 0, .AHEAD. ) ;
#93 = EDGE_CURVE ( 'NONE', #129, #215, #86, .T. ) ;
#94 = PRODUCT ( '28ee', '28ee', '', ( #176 ) ) ;
#95 = ORIENTED_EDGE ( 'NONE', *, *, #93, .F. ) ;
#96 = AXIS2_PLACEMENT_3D ( 'NONE', #231, #128, #109 ) ;
#97 = CARTESIAN_POINT ( 'NONE',  ( -7.000000000000000888, 0.000000000000000000, 800.0000000000000000 ) ) ;
#98 = VERTEX_POINT ( 'NONE', #146 ) ;
#99 = CARTESIAN_POINT ( 'NONE',  ( 0.000000000000000000, 0.000000000000000000, 0.000000000000000000 ) ) ;
#100 = CARTESIAN_POINT ( 'NONE',  ( 0.000000000000000000, 0.000000000000000000, 7.000000000000000000 ) ) ;
#101 = APPROVAL_STATUS ( 'not_yet_approved' ) ;
#102 = CARTESIAN_POINT ( 'NONE',  ( 0.000000000000000000, 0.000000000000000000, 7.000000000000000000 ) ) ;
#103 = CARTESIAN_POINT ( 'NONE',  ( 0.000000000000000000, 0.000000000000000000, 800.0000000000000000 ) ) ;
#104 = CIRCLE ( 'NONE', #166, 7.000000000000000888 ) ;
#105 = DATE_AND_TIME ( #27, #75 ) ;
#106 = PERSON_AND_ORGANIZATION ( #12, #70 ) ;
#107 = ADVANCED_FACE ( 'NONE', ( #218 ), #248, .T. ) ;
#108 = ORIENTED_EDGE ( 'NONE', *, *, #34, .F. ) ;
#109 = DIRECTION ( 'NONE',  ( 1.000000000000000000, 0.000000000000000000, 0.000000000000000000 ) ) ;
#110 = DIRECTION ( 'NONE',  ( 0.000000000000000000, 0.000000000000000000, 1.000000000000000000 ) ) ;
#111 = DATE_AND_TIME ( #182, #13 ) ;
#112 = VECTOR ( 'NONE', #116, 1000.000000000000000 ) ;
#113 = EDGE_LOOP ( 'NONE', ( #209, #6, #242, #83 ) ) ;
#114 = DIRECTION ( 'NONE',  ( -0.000000000000000000, -0.000000000000000000, -1.000000000000000000 ) ) ;
#115 = COORDINATED_UNIVERSAL_TIME_OFFSET ( 1, 0, .AHEAD. ) ;
#116 = DIRECTION ( 'NONE',  ( -0.000000000000000000, -0.000000000000000000, -1.000000000000000000 ) ) ;
#117 = EDGE_CURVE ( 'NONE', #215, #129, #144, .T. ) ;
#118 = DIRECTION ( 'NONE',  ( 0.000000000000000000, 0.000000000000000000, 1.000000000000000000 ) ) ;
#119 = APPLICATION_PROTOCOL_DEFINITION ( 'international standard', 'config_control_design', 1994, #221 ) ;
#120 = DIRECTION ( 'NONE',  ( -1.000000000000000000, 0.000000000000000000, 0.000000000000000000 ) ) ;
#121 = AXIS2_PLACEMENT_3D ( 'NONE', #204, #26, #158 ) ;
#122 = PERSON_AND_ORGANIZATION ( #12, #70 ) ;
#123 = PERSON_AND_ORGANIZATION ( #12, #70 ) ;
#124 = ORIENTED_EDGE ( 'NONE', *, *, #34, .T. ) ;
#125 = ADVANCED_FACE ( 'NONE', ( #131 ), #18, .T. ) ;
#126 = ORIENTED_EDGE ( 'NONE', *, *, #93, .T. ) ;
#127 = PERSON_AND_ORGANIZATION ( #12, #70 ) ;
#128 = DIRECTION ( 'NONE',  ( 0.000000000000000000, 0.000000000000000000, 1.000000000000000000 ) ) ;
#129 = VERTEX_POINT ( 'NONE', #251 ) ;
#130 = EDGE_CURVE ( 'NONE', #35, #38, #193, .T. ) ;
#131 = FACE_OUTER_BOUND ( 'NONE', #113, .T. ) ;
#132 = LINE ( 'NONE', #217, #76 ) ;
#133 =( GEOMETRIC_REPRESENTATION_CONTEXT ( 3 ) GLOBAL_UNCERTAINTY_ASSIGNED_CONTEXT ( ( #160 ) ) GLOBAL_UNIT_ASSIGNED_CONTEXT ( ( #72, #143, #200 ) ) REPRESENTATION_CONTEXT ( 'NONE', 'WORKASPACE' ) );
#134 = DIRECTION ( 'NONE',  ( -1.000000000000000000, 0.000000000000000000, 0.000000000000000000 ) ) ;
#135 = CC_DESIGN_PERSON_AND_ORGANIZATION_ASSIGNMENT ( #122, #183, ( #187 ) ) ;
#136 = CARTESIAN_POINT ( 'NONE',  ( 0.000000000000000000, 0.000000000000000000, 800.0000000000000000 ) ) ;
#137 = AXIS2_PLACEMENT_3D ( 'NONE', #239, #233, #63 ) ;
#138 = LOCAL_TIME ( 10, 45, 36.00000000000000000, #92 ) ;
#139 = CYLINDRICAL_SURFACE ( 'NONE', #157, 7.000000000000000888 ) ;
#140 = AXIS2_PLACEMENT_3D ( 'NONE', #100, #177, #255 ) ;
#141 = ORIENTED_EDGE ( 'NONE', *, *, #19, .F. ) ;
#142 = EDGE_LOOP ( 'NONE', ( #244, #32 ) ) ;
#143 =( NAMED_UNIT ( * ) PLANE_ANGLE_UNIT ( ) SI_UNIT ( $, .RADIAN. ) );
#144 = CIRCLE ( 'NONE', #137, 11.00000000000000000 ) ;
#145 = CIRCLE ( 'NONE', #237, 7.000000000000000888 ) ;
#146 = CARTESIAN_POINT ( 'NONE',  ( -11.00000000000000000, 0.000000000000000000, 7.000000000000000000 ) ) ;
#147 = DATE_AND_TIME ( #79, #138 ) ;
#148 = DIRECTION ( 'NONE',  ( -1.000000000000000000, 0.000000000000000000, 0.000000000000000000 ) ) ;
#149 = CARTESIAN_POINT ( 'NONE',  ( 0.000000000000000000, 0.000000000000000000, 7.000000000000000000 ) ) ;
#150 = EDGE_CURVE ( 'NONE', #15, #215, #132, .T. ) ;
#151 = CIRCLE ( 'NONE', #121, 11.00000000000000000 ) ;
#152 = CARTESIAN_POINT ( 'NONE',  ( -11.00000000000000000, 0.000000000000000000, 7.000000000000000000 ) ) ;
#153 = CARTESIAN_POINT ( 'NONE',  ( 0.000000000000000000, 0.000000000000000000, 7.000000000000000000 ) ) ;
#154 = APPROVAL_ROLE ( '' ) ;
#155 = ADVANCED_BREP_SHAPE_REPRESENTATION ( '28ee', ( #43, #96 ), #133 ) ;
#156 = FACE_OUTER_BOUND ( 'NONE', #188, .T. ) ;
#157 = AXIS2_PLACEMENT_3D ( 'NONE', #223, #87, #120 ) ;
#158 = DIRECTION ( 'NONE',  ( 1.000000000000000000, 0.000000000000000000, 0.000000000000000000 ) ) ;
#159 = EDGE_CURVE ( 'NONE', #224, #38, #104, .T. ) ;
#160 = UNCERTAINTY_MEASURE_WITH_UNIT (LENGTH_MEASURE( 1.000000000000000082E-05 ), #72, 'distance_accuracy_value', 'NONE');
#161 = CALENDAR_DATE ( 2023, 13, 2 ) ;
#162 = ORIENTED_EDGE ( 'NONE', *, *, #19, .T. ) ;
#163 = ADVANCED_FACE ( 'NONE', ( #44 ), #198, .F. ) ;
#164 = AXIS2_PLACEMENT_3D ( 'NONE', #99, #205, #85 ) ;
#165 = APPROVAL_PERSON_ORGANIZATION ( #55, #196, #7 ) ;
#166 = AXIS2_PLACEMENT_3D ( 'NONE', #149, #201, #235 ) ;
#167 = DIRECTION ( 'NONE',  ( 1.000000000000000000, 0.000000000000000000, -0.000000000000000000 ) ) ;
#168 = ORIENTED_EDGE ( 'NONE', *, *, #2, .T. ) ;
#169 = CC_DESIGN_DATE_AND_TIME_ASSIGNMENT ( #111, #89, ( #187 ) ) ;
#170 = APPLICATION_PROTOCOL_DEFINITION ( 'international standard', 'config_control_design', 1994, #50 ) ;
#171 = DIRECTION ( 'NONE',  ( 0.000000000000000000, 0.000000000000000000, 1.000000000000000000 ) ) ;
#172 = AXIS2_PLACEMENT_3D ( 'NONE', #45, #41, #134 ) ;
#173 = APPROVAL_DATE_TIME ( #71, #196 ) ;
#174 = DIRECTION ( 'NONE',  ( 1.000000000000000000, 0.000000000000000000, 0.000000000000000000 ) ) ;
#175 = ADVANCED_FACE ( 'NONE', ( #31, #8 ), #68, .T. ) ;
#176 = MECHANICAL_CONTEXT ( 'NONE', #50, 'mechanical' ) ;
#177 = DIRECTION ( 'NONE',  ( -0.000000000000000000, -0.000000000000000000, -1.000000000000000000 ) ) ;
#178 = DIRECTION ( 'NONE',  ( 0.000000000000000000, 0.000000000000000000, 1.000000000000000000 ) ) ;
#179 = CLOSED_SHELL ( 'NONE', ( #107, #125, #220, #175, #163, #225, #247 ) ) ;
#180 = CARTESIAN_POINT ( 'NONE',  ( -7.000000000000000888, 0.000000000000000000, 7.000000000000000000 ) ) ;
#181 = CYLINDRICAL_SURFACE ( 'NONE', #140, 11.00000000000000000 ) ;
#182 = CALENDAR_DATE ( 2023, 13, 2 ) ;
#183 = PERSON_AND_ORGANIZATION_ROLE ( 'creator' ) ;
#184 = AXIS2_PLACEMENT_3D ( 'NONE', #136, #65, #148 ) ;
#185 = ORIENTED_EDGE ( 'NONE', *, *, #130, .T. ) ;
#186 = APPROVAL_STATUS ( 'not_yet_approved' ) ;
#187 = PRODUCT_DEFINITION ( 'NEZNÁMÝ', '', #77, #210 ) ;
#188 = EDGE_LOOP ( 'NONE', ( #229, #141, #124, #232 ) ) ;
#189 = LOCAL_TIME ( 10, 45, 36.00000000000000000, #58 ) ;
#190 = CARTESIAN_POINT ( 'NONE',  ( 7.000000000000000888, 8.572527594031474176E-16, 7.000000000000000000 ) ) ;
#191 = PERSON_AND_ORGANIZATION_ROLE ( 'creator' ) ;
#192 = PRODUCT_DEFINITION_SHAPE ( 'NONE', 'NONE',  #187 ) ;
#193 = LINE ( 'NONE', #20, #112 ) ;
#194 = LOCAL_TIME ( 10, 45, 36.00000000000000000, #115 ) ;
#195 = SECURITY_CLASSIFICATION ( '', '', #249 ) ;
#196 = APPROVAL ( #186, 'NEURÈENÝ' ) ;
#197 = DIRECTION ( 'NONE',  ( 0.000000000000000000, 0.000000000000000000, 1.000000000000000000 ) ) ;
#198 = PLANE ( 'NONE',  #164 ) ;
#199 = APPROVAL_STATUS ( 'not_yet_approved' ) ;
#200 =( NAMED_UNIT ( * ) SI_UNIT ( $, .STERADIAN. ) SOLID_ANGLE_UNIT ( ) );
#201 = DIRECTION ( 'NONE',  ( 0.000000000000000000, 0.000000000000000000, 1.000000000000000000 ) ) ;
#202 = CARTESIAN_POINT ( 'NONE',  ( 11.00000000000000000, 1.347111479062088405E-15, 0.000000000000000000 ) ) ;
#203 = CC_DESIGN_PERSON_AND_ORGANIZATION_ASSIGNMENT ( #106, #11, ( #195 ) ) ;
#204 = CARTESIAN_POINT ( 'NONE',  ( 0.000000000000000000, 0.000000000000000000, 7.000000000000000000 ) ) ;
#205 = DIRECTION ( 'NONE',  ( 0.000000000000000000, 0.000000000000000000, 1.000000000000000000 ) ) ;
#206 = EDGE_CURVE ( 'NONE', #35, #60, #145, .T. ) ;
#207 = DIRECTION ( 'NONE',  ( 0.000000000000000000, 0.000000000000000000, 1.000000000000000000 ) ) ;
#208 = ORIENTED_EDGE ( 'NONE', *, *, #243, .T. ) ;
#209 = ORIENTED_EDGE ( 'NONE', *, *, #234, .F. ) ;
#210 = DESIGN_CONTEXT ( 'detailed design', #221, 'design' ) ;
#211 = PERSON_AND_ORGANIZATION ( #12, #70 ) ;
#212 = AXIS2_PLACEMENT_3D ( 'NONE', #102, #178, #241 ) ;
#213 = ORIENTED_EDGE ( 'NONE', *, *, #150, .F. ) ;
#214 = EDGE_LOOP ( 'NONE', ( #208, #246 ) ) ;
#215 = VERTEX_POINT ( 'NONE', #202 ) ;
#216 = CC_DESIGN_PERSON_AND_ORGANIZATION_ASSIGNMENT ( #51, #30, ( #94 ) ) ;
#217 = CARTESIAN_POINT ( 'NONE',  ( 11.00000000000000000, 1.347111479062088405E-15, 7.000000000000000000 ) ) ;
#218 = FACE_OUTER_BOUND ( 'NONE', #73, .T. ) ;
#219 = LINE ( 'NONE', #78, #29 ) ;
#220 = ADVANCED_FACE ( 'NONE', ( #22 ), #181, .T. ) ;
#221 = APPLICATION_CONTEXT ( 'configuration controlled 3d designs of mechanical parts and assemblies' ) ;
#222 = APPROVAL_PERSON_ORGANIZATION ( #25, #230, #1 ) ;
#223 = CARTESIAN_POINT ( 'NONE',  ( 0.000000000000000000, 0.000000000000000000, 800.0000000000000000 ) ) ;
#224 = VERTEX_POINT ( 'NONE', #180 ) ;
#225 = ADVANCED_FACE ( 'NONE', ( #156 ), #139, .T. ) ;
#226 = APPROVAL_DATE_TIME ( #105, #230 ) ;
#227 = APPROVAL_PERSON_ORGANIZATION ( #127, #42, #154 ) ;
#228 = AXIS2_PLACEMENT_3D ( 'NONE', #153, #171, #80 ) ;
#229 = ORIENTED_EDGE ( 'NONE', *, *, #130, .F. ) ;
#230 = APPROVAL ( #101, 'NEURÈENÝ' ) ;
#231 = CARTESIAN_POINT ( 'NONE',  ( 0.000000000000000000, 0.000000000000000000, 0.000000000000000000 ) ) ;
#232 = ORIENTED_EDGE ( 'NONE', *, *, #159, .T. ) ;
#233 = DIRECTION ( 'NONE',  ( 0.000000000000000000, 0.000000000000000000, 1.000000000000000000 ) ) ;
#234 = EDGE_CURVE ( 'NONE', #15, #98, #151, .T. ) ;
#235 = DIRECTION ( 'NONE',  ( 1.000000000000000000, 0.000000000000000000, 0.000000000000000000 ) ) ;
#236 = CIRCLE ( 'NONE', #52, 7.000000000000000888 ) ;
#237 = AXIS2_PLACEMENT_3D ( 'NONE', #103, #118, #5 ) ;
#238 = CARTESIAN_POINT ( 'NONE',  ( 7.000000000000000888, 8.572527594031474176E-16, 800.0000000000000000 ) ) ;
#239 = CARTESIAN_POINT ( 'NONE',  ( 0.000000000000000000, 0.000000000000000000, 0.000000000000000000 ) ) ;
#240 = CC_DESIGN_APPROVAL ( #230, ( #187 ) ) ;
#241 = DIRECTION ( 'NONE',  ( 1.000000000000000000, 0.000000000000000000, 0.000000000000000000 ) ) ;
#242 = ORIENTED_EDGE ( 'NONE', *, *, #117, .T. ) ;
#243 = EDGE_CURVE ( 'NONE', #98, #15, #48, .T. ) ;
#244 = ORIENTED_EDGE ( 'NONE', *, *, #159, .F. ) ;
#245 = VECTOR ( 'NONE', #250, 1000.000000000000000 ) ;
#246 = ORIENTED_EDGE ( 'NONE', *, *, #234, .T. ) ;
#247 = ADVANCED_FACE ( 'NONE', ( #3 ), #14, .T. ) ;
#248 = CYLINDRICAL_SURFACE ( 'NONE', #184, 7.000000000000000888 ) ;
#249 = SECURITY_CLASSIFICATION_LEVEL ( 'unclassified' ) ;
#250 = DIRECTION ( 'NONE',  ( -0.000000000000000000, -0.000000000000000000, -1.000000000000000000 ) ) ;
#251 = CARTESIAN_POINT ( 'NONE',  ( -11.00000000000000000, 0.000000000000000000, 0.000000000000000000 ) ) ;
#252 = ORIENTED_EDGE ( 'NONE', *, *, #243, .F. ) ;
#253 = CC_DESIGN_PERSON_AND_ORGANIZATION_ASSIGNMENT ( #123, #191, ( #77 ) ) ;
#254 = CARTESIAN_POINT ( 'NONE',  ( 0.000000000000000000, 0.000000000000000000, 800.0000000000000000 ) ) ;
#255 = DIRECTION ( 'NONE',  ( -1.000000000000000000, 0.000000000000000000, 0.000000000000000000 ) ) ;
ENDSEC;
END-ISO-10303-21;
