ISO-10303-21;
HEADER;
FILE_DESCRIPTION (( 'STEP AP203' ),
    '1' );
FILE_NAME ('361c.STEP',
    '2023-02-13T07:30:34',
    ( '' ),
    ( '' ),
    'SwSTEP 2.0',
    'SolidWorks 2019',
    '' );
FILE_SCHEMA (( 'CONFIG_CONTROL_DESIGN' ));
ENDSEC;

DATA;
#1 = COORDINATED_UNIVERSAL_TIME_OFFSET ( 1, 0, .AHEAD. ) ;
#2 = ADVANCED_BREP_SHAPE_REPRESENTATION ( '361c', ( #192, #114 ), #66 ) ;
#3 = EDGE_LOOP ( 'NONE', ( #162, #216, #142, #144 ) ) ;
#4 = COORDINATED_UNIVERSAL_TIME_OFFSET ( 1, 0, .AHEAD. ) ;
#5 = DIRECTION ( 'NONE',  ( 1.000000000000000000, 0.000000000000000000, 0.000000000000000000 ) ) ;
#6 = DIRECTION ( 'NONE',  ( 0.000000000000000000, 0.000000000000000000, 1.000000000000000000 ) ) ;
#7 = CARTESIAN_POINT ( 'NONE',  ( 0.000000000000000000, 0.000000000000000000, 10.00000000000000000 ) ) ;
#8 = CYLINDRICAL_SURFACE ( 'NONE', #188, 16.00000000000000000 ) ;
#9 = CALENDAR_DATE ( 2023, 13, 2 ) ;
#10 = CARTESIAN_POINT ( 'NONE',  ( 20.00000000000000000, 2.449293598294706513E-15, 0.000000000000000000 ) ) ;
#11 = AXIS2_PLACEMENT_3D ( 'NONE', #230, #245, #196 ) ;
#12 = DIRECTION ( 'NONE',  ( 0.000000000000000000, 0.000000000000000000, 1.000000000000000000 ) ) ;
#13 = CYLINDRICAL_SURFACE ( 'NONE', #241, 16.00000000000000000 ) ;
#14 = APPROVAL ( #28, 'NEURÈENÝ' ) ;
#15 = PERSON_AND_ORGANIZATION ( #34, #176 ) ;
#16 = CARTESIAN_POINT ( 'NONE',  ( 0.000000000000000000, 0.000000000000000000, 99.99999999999998579 ) ) ;
#17 = AXIS2_PLACEMENT_3D ( 'NONE', #151, #229, #209 ) ;
#18 = DIRECTION ( 'NONE',  ( -1.000000000000000000, 0.000000000000000000, 0.000000000000000000 ) ) ;
#19 = PERSON_AND_ORGANIZATION ( #34, #176 ) ;
#20 = ORIENTED_EDGE ( 'NONE', *, *, #110, .T. ) ;
#21 = ORIENTED_EDGE ( 'NONE', *, *, #210, .F. ) ;
#22 = ORIENTED_EDGE ( 'NONE', *, *, #64, .F. ) ;
#23 = DIRECTION ( 'NONE',  ( 1.000000000000000000, 0.000000000000000000, 0.000000000000000000 ) ) ;
#24 = DIRECTION ( 'NONE',  ( 0.000000000000000000, 0.000000000000000000, 1.000000000000000000 ) ) ;
#25 = DIRECTION ( 'NONE',  ( 1.000000000000000000, 0.000000000000000000, 0.000000000000000000 ) ) ;
#26 = PLANE ( 'NONE',  #113 ) ;
#27 = CIRCLE ( 'NONE', #172, 20.00000000000000000 ) ;
#28 = APPROVAL_STATUS ( 'not_yet_approved' ) ;
#29 = APPROVAL_DATE_TIME ( #51, #88 ) ;
#30 = CYLINDRICAL_SURFACE ( 'NONE', #73, 20.00000000000000000 ) ;
#31 = CARTESIAN_POINT ( 'NONE',  ( 16.00000000000000000, 1.959434878635764737E-15, 99.99999999999998579 ) ) ;
#32 = PLANE ( 'NONE',  #11 ) ;
#33 = PERSON_AND_ORGANIZATION_ROLE ( 'design_supplier' ) ;
#34 = PERSON ( 'NEURÈENÝ', 'NEURÈENÝ', 'NEURÈENÝ', ('NEURÈENÝ'), ('NEURÈENÝ'), ('NEURÈENÝ') ) ;
#35 = DIRECTION ( 'NONE',  ( -0.000000000000000000, -0.000000000000000000, -1.000000000000000000 ) ) ;
#36 = PERSON_AND_ORGANIZATION_ROLE ( 'design_owner' ) ;
#37 = ORIENTED_EDGE ( 'NONE', *, *, #232, .T. ) ;
#38 = CC_DESIGN_DATE_AND_TIME_ASSIGNMENT ( #191, #147, ( #189 ) ) ;
#39 = EDGE_LOOP ( 'NONE', ( #236, #217, #78, #174 ) ) ;
#40 = ORIENTED_EDGE ( 'NONE', *, *, #92, .T. ) ;
#41 = ORIENTED_EDGE ( 'NONE', *, *, #134, .T. ) ;
#42 = CIRCLE ( 'NONE', #53, 20.00000000000000000 ) ;
#43 = LOCAL_TIME ( 8, 30, 34.00000000000000000, #4 ) ;
#44 = APPLICATION_CONTEXT ( 'configuration controlled 3d designs of mechanical parts and assemblies' ) ;
#45 = DESIGN_CONTEXT ( 'detailed design', #44, 'design' ) ;
#46 = DIRECTION ( 'NONE',  ( -0.000000000000000000, -0.000000000000000000, -1.000000000000000000 ) ) ;
#47 = ADVANCED_FACE ( 'NONE', ( #212 ), #118, .T. ) ;
#48 = PERSON_AND_ORGANIZATION ( #34, #176 ) ;
#49 = DATE_AND_TIME ( #9, #96 ) ;
#50 = CARTESIAN_POINT ( 'NONE',  ( 0.000000000000000000, 0.000000000000000000, 10.00000000000000000 ) ) ;
#51 = DATE_AND_TIME ( #123, #169 ) ;
#52 = DIRECTION ( 'NONE',  ( 0.000000000000000000, 0.000000000000000000, 1.000000000000000000 ) ) ;
#53 = AXIS2_PLACEMENT_3D ( 'NONE', #127, #200, #23 ) ;
#54 = CARTESIAN_POINT ( 'NONE',  ( 0.000000000000000000, 0.000000000000000000, 10.00000000000000000 ) ) ;
#55 = CC_DESIGN_PERSON_AND_ORGANIZATION_ASSIGNMENT ( #226, #108, ( #140 ) ) ;
#56 = PRODUCT_DEFINITION_SHAPE ( 'NONE', 'NONE',  #189 ) ;
#57 = DIRECTION ( 'NONE',  ( -0.000000000000000000, -0.000000000000000000, -1.000000000000000000 ) ) ;
#58 = LINE ( 'NONE', #119, #154 ) ;
#59 = CIRCLE ( 'NONE', #101, 20.00000000000000000 ) ;
#60 = ORIENTED_EDGE ( 'NONE', *, *, #231, .T. ) ;
#61 = EDGE_CURVE ( 'NONE', #193, #158, #27, .T. ) ;
#62 = PERSON_AND_ORGANIZATION ( #34, #176 ) ;
#63 = COORDINATED_UNIVERSAL_TIME_OFFSET ( 1, 0, .AHEAD. ) ;
#64 = EDGE_CURVE ( 'NONE', #85, #122, #59, .T. ) ;
#65 = EDGE_CURVE ( 'NONE', #193, #122, #104, .T. ) ;
#66 =( GEOMETRIC_REPRESENTATION_CONTEXT ( 3 ) GLOBAL_UNCERTAINTY_ASSIGNED_CONTEXT ( ( #163 ) ) GLOBAL_UNIT_ASSIGNED_CONTEXT ( ( #152, #107, #203 ) ) REPRESENTATION_CONTEXT ( 'NONE', 'WORKASPACE' ) );
#67 = CARTESIAN_POINT ( 'NONE',  ( 16.00000000000000000, 1.959434878635764737E-15, 10.00000000000000000 ) ) ;
#68 = CARTESIAN_POINT ( 'NONE',  ( 0.000000000000000000, 0.000000000000000000, 99.99999999999998579 ) ) ;
#69 = LINE ( 'NONE', #239, #246 ) ;
#70 = APPROVAL_DATE_TIME ( #49, #14 ) ;
#71 = DIRECTION ( 'NONE',  ( 0.000000000000000000, 0.000000000000000000, 1.000000000000000000 ) ) ;
#72 = FACE_OUTER_BOUND ( 'NONE', #220, .T. ) ;
#73 = AXIS2_PLACEMENT_3D ( 'NONE', #109, #168, #75 ) ;
#74 = CARTESIAN_POINT ( 'NONE',  ( 20.00000000000000000, 2.449293598294706513E-15, 10.00000000000000000 ) ) ;
#75 = DIRECTION ( 'NONE',  ( -1.000000000000000000, 0.000000000000000000, 0.000000000000000000 ) ) ;
#76 = CARTESIAN_POINT ( 'NONE',  ( 0.000000000000000000, 0.000000000000000000, 0.000000000000000000 ) ) ;
#77 = APPLICATION_CONTEXT ( 'configuration controlled 3d designs of mechanical parts and assemblies' ) ;
#78 = ORIENTED_EDGE ( 'NONE', *, *, #195, .T. ) ;
#79 = PRODUCT ( '361c', '361c', '', ( #102 ) ) ;
#80 = DIRECTION ( 'NONE',  ( -1.000000000000000000, 0.000000000000000000, 0.000000000000000000 ) ) ;
#81 = EDGE_LOOP ( 'NONE', ( #60, #190 ) ) ;
#82 = VERTEX_POINT ( 'NONE', #183 ) ;
#83 = CIRCLE ( 'NONE', #224, 16.00000000000000000 ) ;
#84 = CC_DESIGN_APPROVAL ( #137, ( #189 ) ) ;
#85 = VERTEX_POINT ( 'NONE', #180 ) ;
#86 = DIRECTION ( 'NONE',  ( 1.000000000000000000, 0.000000000000000000, 0.000000000000000000 ) ) ;
#87 = DATE_AND_TIME ( #129, #43 ) ;
#88 = APPROVAL ( #99, 'NEURÈENÝ' ) ;
#89 = FACE_BOUND ( 'NONE', #157, .T. ) ;
#90 = FACE_OUTER_BOUND ( 'NONE', #177, .T. ) ;
#91 = APPROVAL_PERSON_ORGANIZATION ( #143, #14, #166 ) ;
#92 = EDGE_CURVE ( 'NONE', #255, #97, #139, .T. ) ;
#93 = AXIS2_PLACEMENT_3D ( 'NONE', #223, #52, #149 ) ;
#94 = APPROVAL_ROLE ( '' ) ;
#95 = ORIENTED_EDGE ( 'NONE', *, *, #64, .T. ) ;
#96 = LOCAL_TIME ( 8, 30, 34.00000000000000000, #244 ) ;
#97 = VERTEX_POINT ( 'NONE', #67 ) ;
#98 = PERSON_AND_ORGANIZATION_ROLE ( 'creator' ) ;
#99 = APPROVAL_STATUS ( 'not_yet_approved' ) ;
#100 = APPROVAL_DATE_TIME ( #253, #137 ) ;
#101 = AXIS2_PLACEMENT_3D ( 'NONE', #76, #6, #128 ) ;
#102 = MECHANICAL_CONTEXT ( 'NONE', #77, 'mechanical' ) ;
#103 = CC_DESIGN_APPROVAL ( #88, ( #214 ) ) ;
#104 = LINE ( 'NONE', #242, #182 ) ;
#105 = DIRECTION ( 'NONE',  ( 0.000000000000000000, 0.000000000000000000, 1.000000000000000000 ) ) ;
#106 = CLOSED_SHELL ( 'NONE', ( #179, #47, #254, #156, #219, #206, #141 ) ) ;
#107 =( NAMED_UNIT ( * ) PLANE_ANGLE_UNIT ( ) SI_UNIT ( $, .RADIAN. ) );
#108 = PERSON_AND_ORGANIZATION_ROLE ( 'creator' ) ;
#109 = CARTESIAN_POINT ( 'NONE',  ( 0.000000000000000000, 0.000000000000000000, 10.00000000000000000 ) ) ;
#110 = EDGE_CURVE ( 'NONE', #158, #85, #69, .T. ) ;
#111 = PLANE ( 'NONE',  #17 ) ;
#112 = CARTESIAN_POINT ( 'NONE',  ( -20.00000000000000000, 0.000000000000000000, 10.00000000000000000 ) ) ;
#113 = AXIS2_PLACEMENT_3D ( 'NONE', #208, #105, #165 ) ;
#114 = AXIS2_PLACEMENT_3D ( 'NONE', #124, #24, #86 ) ;
#115 = EDGE_CURVE ( 'NONE', #97, #255, #197, .T. ) ;
#116 = PERSON_AND_ORGANIZATION ( #34, #176 ) ;
#117 = DIRECTION ( 'NONE',  ( 1.000000000000000000, 0.000000000000000000, 0.000000000000000000 ) ) ;
#118 = CYLINDRICAL_SURFACE ( 'NONE', #146, 20.00000000000000000 ) ;
#119 = CARTESIAN_POINT ( 'NONE',  ( 16.00000000000000000, 1.959434878635764737E-15, 99.99999999999998579 ) ) ;
#120 = CC_DESIGN_SECURITY_CLASSIFICATION ( #214, ( #140 ) ) ;
#121 = EDGE_LOOP ( 'NONE', ( #22, #235 ) ) ;
#122 = VERTEX_POINT ( 'NONE', #10 ) ;
#123 = CALENDAR_DATE ( 2023, 13, 2 ) ;
#124 = CARTESIAN_POINT ( 'NONE',  ( 0.000000000000000000, 0.000000000000000000, 0.000000000000000000 ) ) ;
#125 = CIRCLE ( 'NONE', #136, 16.00000000000000000 ) ;
#126 = PRODUCT_RELATED_PRODUCT_CATEGORY ( 'detail', '', ( #79 ) ) ;
#127 = CARTESIAN_POINT ( 'NONE',  ( 0.000000000000000000, 0.000000000000000000, 0.000000000000000000 ) ) ;
#128 = DIRECTION ( 'NONE',  ( 1.000000000000000000, 0.000000000000000000, 0.000000000000000000 ) ) ;
#129 = CALENDAR_DATE ( 2023, 13, 2 ) ;
#130 = DIRECTION ( 'NONE',  ( 0.000000000000000000, 0.000000000000000000, 1.000000000000000000 ) ) ;
#131 = VECTOR ( 'NONE', #167, 1000.000000000000000 ) ;
#132 = LINE ( 'NONE', #207, #131 ) ;
#133 = SHAPE_DEFINITION_REPRESENTATION ( #56, #2 ) ;
#134 = EDGE_CURVE ( 'NONE', #82, #255, #132, .T. ) ;
#135 = DIRECTION ( 'NONE',  ( 0.000000000000000000, 0.000000000000000000, 1.000000000000000000 ) ) ;
#136 = AXIS2_PLACEMENT_3D ( 'NONE', #249, #71, #228 ) ;
#137 = APPROVAL ( #187, 'NEURÈENÝ' ) ;
#138 = ORIENTED_EDGE ( 'NONE', *, *, #115, .F. ) ;
#139 = CIRCLE ( 'NONE', #204, 16.00000000000000000 ) ;
#140 = PRODUCT_DEFINITION_FORMATION_WITH_SPECIFIED_SOURCE ( 'LIBOVOLNÝ', '', #79, .NOT_KNOWN. ) ;
#141 = ADVANCED_FACE ( 'NONE', ( #72 ), #111, .T. ) ;
#142 = ORIENTED_EDGE ( 'NONE', *, *, #115, .T. ) ;
#143 = PERSON_AND_ORGANIZATION ( #34, #176 ) ;
#144 = ORIENTED_EDGE ( 'NONE', *, *, #134, .F. ) ;
#145 = CALENDAR_DATE ( 2023, 13, 2 ) ;
#146 = AXIS2_PLACEMENT_3D ( 'NONE', #251, #233, #18 ) ;
#147 = DATE_TIME_ROLE ( 'creation_date' ) ;
#148 = VERTEX_POINT ( 'NONE', #31 ) ;
#149 = DIRECTION ( 'NONE',  ( 1.000000000000000000, 0.000000000000000000, 0.000000000000000000 ) ) ;
#150 = CIRCLE ( 'NONE', #198, 20.00000000000000000 ) ;
#151 = CARTESIAN_POINT ( 'NONE',  ( 0.000000000000000000, 0.000000000000000000, 99.99999999999998579 ) ) ;
#152 =( LENGTH_UNIT ( ) NAMED_UNIT ( * ) SI_UNIT ( .MILLI., .METRE. ) );
#153 = COORDINATED_UNIVERSAL_TIME_OFFSET ( 1, 0, .AHEAD. ) ;
#154 = VECTOR ( 'NONE', #35, 1000.000000000000000 ) ;
#155 = CC_DESIGN_APPROVAL ( #14, ( #140 ) ) ;
#156 = ADVANCED_FACE ( 'NONE', ( #89, #181 ), #26, .T. ) ;
#157 = EDGE_LOOP ( 'NONE', ( #194, #138 ) ) ;
#158 = VERTEX_POINT ( 'NONE', #112 ) ;
#159 = CC_DESIGN_DATE_AND_TIME_ASSIGNMENT ( #87, #240, ( #214 ) ) ;
#160 = ORIENTED_EDGE ( 'NONE', *, *, #65, .F. ) ;
#161 = CC_DESIGN_PERSON_AND_ORGANIZATION_ASSIGNMENT ( #252, #36, ( #79 ) ) ;
#162 = ORIENTED_EDGE ( 'NONE', *, *, #199, .F. ) ;
#163 = UNCERTAINTY_MEASURE_WITH_UNIT (LENGTH_MEASURE( 1.000000000000000082E-05 ), #152, 'distance_accuracy_value', 'NONE');
#164 = DIRECTION ( 'NONE',  ( 0.000000000000000000, 0.000000000000000000, 1.000000000000000000 ) ) ;
#165 = DIRECTION ( 'NONE',  ( 1.000000000000000000, 0.000000000000000000, -0.000000000000000000 ) ) ;
#166 = APPROVAL_ROLE ( '' ) ;
#167 = DIRECTION ( 'NONE',  ( -0.000000000000000000, -0.000000000000000000, -1.000000000000000000 ) ) ;
#168 = DIRECTION ( 'NONE',  ( -0.000000000000000000, -0.000000000000000000, -1.000000000000000000 ) ) ;
#169 = LOCAL_TIME ( 8, 30, 34.00000000000000000, #63 ) ;
#170 = CC_DESIGN_PERSON_AND_ORGANIZATION_ASSIGNMENT ( #62, #98, ( #189 ) ) ;
#171 = ORIENTED_EDGE ( 'NONE', *, *, #199, .T. ) ;
#172 = AXIS2_PLACEMENT_3D ( 'NONE', #7, #164, #5 ) ;
#173 = CALENDAR_DATE ( 2023, 13, 2 ) ;
#174 = ORIENTED_EDGE ( 'NONE', *, *, #110, .F. ) ;
#175 = ORIENTED_EDGE ( 'NONE', *, *, #232, .F. ) ;
#176 = ORGANIZATION ( 'NEURÈENÝ', 'NEURÈENÝ', '' ) ;
#177 = EDGE_LOOP ( 'NONE', ( #160, #218, #20, #95 ) ) ;
#178 = DIRECTION ( 'NONE',  ( 1.000000000000000000, 0.000000000000000000, 0.000000000000000000 ) ) ;
#179 = ADVANCED_FACE ( 'NONE', ( #243 ), #8, .T. ) ;
#180 = CARTESIAN_POINT ( 'NONE',  ( -20.00000000000000000, 0.000000000000000000, 0.000000000000000000 ) ) ;
#181 = FACE_OUTER_BOUND ( 'NONE', #81, .T. ) ;
#182 = VECTOR ( 'NONE', #222, 1000.000000000000000 ) ;
#183 = CARTESIAN_POINT ( 'NONE',  ( -16.00000000000000000, 0.000000000000000000, 99.99999999999998579 ) ) ;
#184 = FACE_OUTER_BOUND ( 'NONE', #234, .T. ) ;
#185 = SECURITY_CLASSIFICATION_LEVEL ( 'unclassified' ) ;
#186 = FACE_OUTER_BOUND ( 'NONE', #121, .T. ) ;
#187 = APPROVAL_STATUS ( 'not_yet_approved' ) ;
#188 = AXIS2_PLACEMENT_3D ( 'NONE', #225, #247, #238 ) ;
#189 = PRODUCT_DEFINITION ( 'NEZNÁMÝ', '', #140, #45 ) ;
#190 = ORIENTED_EDGE ( 'NONE', *, *, #61, .T. ) ;
#191 = DATE_AND_TIME ( #145, #227 ) ;
#192 = MANIFOLD_SOLID_BREP ( 'Pøidat vysunutím3', #106 ) ;
#193 = VERTEX_POINT ( 'NONE', #74 ) ;
#194 = ORIENTED_EDGE ( 'NONE', *, *, #92, .F. ) ;
#195 = EDGE_CURVE ( 'NONE', #122, #85, #42, .T. ) ;
#196 = DIRECTION ( 'NONE',  ( 1.000000000000000000, 0.000000000000000000, -0.000000000000000000 ) ) ;
#197 = CIRCLE ( 'NONE', #93, 16.00000000000000000 ) ;
#198 = AXIS2_PLACEMENT_3D ( 'NONE', #54, #130, #178 ) ;
#199 = EDGE_CURVE ( 'NONE', #148, #82, #83, .T. ) ;
#200 = DIRECTION ( 'NONE',  ( 0.000000000000000000, 0.000000000000000000, 1.000000000000000000 ) ) ;
#201 = APPLICATION_PROTOCOL_DEFINITION ( 'international standard', 'config_control_design', 1994, #77 ) ;
#202 = CC_DESIGN_PERSON_AND_ORGANIZATION_ASSIGNMENT ( #15, #213, ( #214 ) ) ;
#203 =( NAMED_UNIT ( * ) SI_UNIT ( $, .STERADIAN. ) SOLID_ANGLE_UNIT ( ) );
#204 = AXIS2_PLACEMENT_3D ( 'NONE', #50, #12, #25 ) ;
#205 = CARTESIAN_POINT ( 'NONE',  ( -16.00000000000000000, 0.000000000000000000, 10.00000000000000000 ) ) ;
#206 = ADVANCED_FACE ( 'NONE', ( #184 ), #13, .T. ) ;
#207 = CARTESIAN_POINT ( 'NONE',  ( -16.00000000000000000, 0.000000000000000000, 99.99999999999998579 ) ) ;
#208 = CARTESIAN_POINT ( 'NONE',  ( 0.000000000000000000, 0.000000000000000000, 10.00000000000000000 ) ) ;
#209 = DIRECTION ( 'NONE',  ( 1.000000000000000000, 0.000000000000000000, -0.000000000000000000 ) ) ;
#210 = EDGE_CURVE ( 'NONE', #148, #97, #58, .T. ) ;
#211 = APPROVAL_PERSON_ORGANIZATION ( #19, #137, #94 ) ;
#212 = FACE_OUTER_BOUND ( 'NONE', #39, .T. ) ;
#213 = PERSON_AND_ORGANIZATION_ROLE ( 'classification_officer' ) ;
#214 = SECURITY_CLASSIFICATION ( '', '', #185 ) ;
#215 = APPLICATION_PROTOCOL_DEFINITION ( 'international standard', 'config_control_design', 1994, #44 ) ;
#216 = ORIENTED_EDGE ( 'NONE', *, *, #210, .T. ) ;
#217 = ORIENTED_EDGE ( 'NONE', *, *, #65, .T. ) ;
#218 = ORIENTED_EDGE ( 'NONE', *, *, #231, .F. ) ;
#219 = ADVANCED_FACE ( 'NONE', ( #186 ), #32, .F. ) ;
#220 = EDGE_LOOP ( 'NONE', ( #37, #171 ) ) ;
#221 = APPROVAL_PERSON_ORGANIZATION ( #48, #88, #237 ) ;
#222 = DIRECTION ( 'NONE',  ( -0.000000000000000000, -0.000000000000000000, -1.000000000000000000 ) ) ;
#223 = CARTESIAN_POINT ( 'NONE',  ( 0.000000000000000000, 0.000000000000000000, 10.00000000000000000 ) ) ;
#224 = AXIS2_PLACEMENT_3D ( 'NONE', #68, #135, #117 ) ;
#225 = CARTESIAN_POINT ( 'NONE',  ( 0.000000000000000000, 0.000000000000000000, 99.99999999999998579 ) ) ;
#226 = PERSON_AND_ORGANIZATION ( #34, #176 ) ;
#227 = LOCAL_TIME ( 8, 30, 34.00000000000000000, #1 ) ;
#228 = DIRECTION ( 'NONE',  ( 1.000000000000000000, 0.000000000000000000, 0.000000000000000000 ) ) ;
#229 = DIRECTION ( 'NONE',  ( 0.000000000000000000, 0.000000000000000000, 1.000000000000000000 ) ) ;
#230 = CARTESIAN_POINT ( 'NONE',  ( 0.000000000000000000, 0.000000000000000000, 0.000000000000000000 ) ) ;
#231 = EDGE_CURVE ( 'NONE', #158, #193, #150, .T. ) ;
#232 = EDGE_CURVE ( 'NONE', #82, #148, #125, .T. ) ;
#233 = DIRECTION ( 'NONE',  ( -0.000000000000000000, -0.000000000000000000, -1.000000000000000000 ) ) ;
#234 = EDGE_LOOP ( 'NONE', ( #21, #175, #41, #40 ) ) ;
#235 = ORIENTED_EDGE ( 'NONE', *, *, #195, .F. ) ;
#236 = ORIENTED_EDGE ( 'NONE', *, *, #61, .F. ) ;
#237 = APPROVAL_ROLE ( '' ) ;
#238 = DIRECTION ( 'NONE',  ( -1.000000000000000000, 0.000000000000000000, 0.000000000000000000 ) ) ;
#239 = CARTESIAN_POINT ( 'NONE',  ( -20.00000000000000000, 0.000000000000000000, 10.00000000000000000 ) ) ;
#240 = DATE_TIME_ROLE ( 'classification_date' ) ;
#241 = AXIS2_PLACEMENT_3D ( 'NONE', #16, #57, #80 ) ;
#242 = CARTESIAN_POINT ( 'NONE',  ( 20.00000000000000000, 2.449293598294706513E-15, 10.00000000000000000 ) ) ;
#243 = FACE_OUTER_BOUND ( 'NONE', #3, .T. ) ;
#244 = COORDINATED_UNIVERSAL_TIME_OFFSET ( 1, 0, .AHEAD. ) ;
#245 = DIRECTION ( 'NONE',  ( 0.000000000000000000, 0.000000000000000000, 1.000000000000000000 ) ) ;
#246 = VECTOR ( 'NONE', #46, 1000.000000000000000 ) ;
#247 = DIRECTION ( 'NONE',  ( -0.000000000000000000, -0.000000000000000000, -1.000000000000000000 ) ) ;
#248 = LOCAL_TIME ( 8, 30, 34.00000000000000000, #153 ) ;
#249 = CARTESIAN_POINT ( 'NONE',  ( 0.000000000000000000, 0.000000000000000000, 99.99999999999998579 ) ) ;
#250 = CC_DESIGN_PERSON_AND_ORGANIZATION_ASSIGNMENT ( #116, #33, ( #140 ) ) ;
#251 = CARTESIAN_POINT ( 'NONE',  ( 0.000000000000000000, 0.000000000000000000, 10.00000000000000000 ) ) ;
#252 = PERSON_AND_ORGANIZATION ( #34, #176 ) ;
#253 = DATE_AND_TIME ( #173, #248 ) ;
#254 = ADVANCED_FACE ( 'NONE', ( #90 ), #30, .T. ) ;
#255 = VERTEX_POINT ( 'NONE', #205 ) ;
ENDSEC;
END-ISO-10303-21;
