ISO-10303-21;
HEADER;
FILE_DESCRIPTION (( 'STEP AP203' ),
    '1' );
FILE_NAME ('3232.STEP',
    '2023-02-13T16:34:48',
    ( '' ),
    ( '' ),
    'SwSTEP 2.0',
    'SolidWorks 2019',
    '' );
FILE_SCHEMA (( 'CONFIG_CONTROL_DESIGN' ));
ENDSEC;

DATA;
#1 = CC_DESIGN_APPROVAL ( #68, ( #250 ) ) ;
#2 = SHAPE_DEFINITION_REPRESENTATION ( #235, #198 ) ;
#3 = DIRECTION ( 'NONE',  ( -0.000000000000000000, -0.000000000000000000, -1.000000000000000000 ) ) ;
#4 = DATE_AND_TIME ( #207, #180 ) ;
#5 = DESIGN_CONTEXT ( 'detailed design', #102, 'design' ) ;
#6 = ORIENTED_EDGE ( 'NONE', *, *, #92, .F. ) ;
#7 = EDGE_CURVE ( 'NONE', #12, #118, #140, .T. ) ;
#8 = ORIENTED_EDGE ( 'NONE', *, *, #40, .F. ) ;
#9 = DATE_TIME_ROLE ( 'classification_date' ) ;
#10 = DIRECTION ( 'NONE',  ( -0.000000000000000000, -0.000000000000000000, -1.000000000000000000 ) ) ;
#11 = CARTESIAN_POINT ( 'NONE',  ( 0.000000000000000000, 0.000000000000000000, 160.0000000000000000 ) ) ;
#12 = VERTEX_POINT ( 'NONE', #95 ) ;
#13 = CARTESIAN_POINT ( 'NONE',  ( 0.000000000000000000, 0.000000000000000000, 0.000000000000000000 ) ) ;
#14 = AXIS2_PLACEMENT_3D ( 'NONE', #11, #247, #114 ) ;
#15 = LOCAL_TIME ( 17, 34, 48.00000000000000000, #234 ) ;
#16 = DIRECTION ( 'NONE',  ( 0.000000000000000000, 0.000000000000000000, 1.000000000000000000 ) ) ;
#17 = CARTESIAN_POINT ( 'NONE',  ( 0.000000000000000000, 0.000000000000000000, 160.0000000000000000 ) ) ;
#18 = ORIENTED_EDGE ( 'NONE', *, *, #97, .F. ) ;
#19 = PERSON_AND_ORGANIZATION ( #196, #101 ) ;
#20 = CARTESIAN_POINT ( 'NONE',  ( 0.000000000000000000, 0.000000000000000000, 0.000000000000000000 ) ) ;
#21 = DATE_AND_TIME ( #240, #200 ) ;
#22 = AXIS2_PLACEMENT_3D ( 'NONE', #212, #29, #90 ) ;
#23 = PERSON_AND_ORGANIZATION ( #196, #101 ) ;
#24 = PERSON_AND_ORGANIZATION_ROLE ( 'creator' ) ;
#25 = DATE_AND_TIME ( #136, #15 ) ;
#26 = COORDINATED_UNIVERSAL_TIME_OFFSET ( 1, 0, .AHEAD. ) ;
#27 = LINE ( 'NONE', #183, #133 ) ;
#28 = AXIS2_PLACEMENT_3D ( 'NONE', #155, #16, #177 ) ;
#29 = DIRECTION ( 'NONE',  ( 0.000000000000000000, 0.000000000000000000, 1.000000000000000000 ) ) ;
#30 = FACE_BOUND ( 'NONE', #244, .T. ) ;
#31 = DIRECTION ( 'NONE',  ( -0.000000000000000000, -0.000000000000000000, -1.000000000000000000 ) ) ;
#32 = CLOSED_SHELL ( 'NONE', ( #128, #255, #57, #46, #213, #153, #124 ) ) ;
#33 = DIRECTION ( 'NONE',  ( 1.000000000000000000, 0.000000000000000000, 0.000000000000000000 ) ) ;
#34 = ORIENTED_EDGE ( 'NONE', *, *, #164, .T. ) ;
#35 = ORIENTED_EDGE ( 'NONE', *, *, #7, .F. ) ;
#36 = PRODUCT_RELATED_PRODUCT_CATEGORY ( 'detail', '', ( #99 ) ) ;
#37 =( GEOMETRIC_REPRESENTATION_CONTEXT ( 3 ) GLOBAL_UNCERTAINTY_ASSIGNED_CONTEXT ( ( #94 ) ) GLOBAL_UNIT_ASSIGNED_CONTEXT ( ( #108, #158, #165 ) ) REPRESENTATION_CONTEXT ( 'NONE', 'WORKASPACE' ) );
#38 = COORDINATED_UNIVERSAL_TIME_OFFSET ( 1, 0, .AHEAD. ) ;
#39 = FACE_OUTER_BOUND ( 'NONE', #96, .T. ) ;
#40 = EDGE_CURVE ( 'NONE', #134, #61, #27, .T. ) ;
#41 = APPROVAL_STATUS ( 'not_yet_approved' ) ;
#42 = AXIS2_PLACEMENT_3D ( 'NONE', #248, #10, #65 ) ;
#43 = APPROVAL_ROLE ( '' ) ;
#44 = CC_DESIGN_APPROVAL ( #223, ( #55 ) ) ;
#45 = ORIENTED_EDGE ( 'NONE', *, *, #92, .T. ) ;
#46 = ADVANCED_FACE ( 'NONE', ( #30, #91 ), #156, .T. ) ;
#47 = ORIENTED_EDGE ( 'NONE', *, *, #139, .F. ) ;
#48 = DIRECTION ( 'NONE',  ( 1.000000000000000000, 0.000000000000000000, 0.000000000000000000 ) ) ;
#49 = DIRECTION ( 'NONE',  ( -1.000000000000000000, 0.000000000000000000, 0.000000000000000000 ) ) ;
#50 = AXIS2_PLACEMENT_3D ( 'NONE', #208, #113, #231 ) ;
#51 = FACE_OUTER_BOUND ( 'NONE', #53, .T. ) ;
#52 = ORIENTED_EDGE ( 'NONE', *, *, #173, .F. ) ;
#53 = EDGE_LOOP ( 'NONE', ( #8, #6, #230, #112 ) ) ;
#54 = DATE_AND_TIME ( #220, #163 ) ;
#55 = SECURITY_CLASSIFICATION ( '', '', #161 ) ;
#56 = CC_DESIGN_PERSON_AND_ORGANIZATION_ASSIGNMENT ( #205, #24, ( #238 ) ) ;
#57 = ADVANCED_FACE ( 'NONE', ( #51 ), #191, .T. ) ;
#58 = PERSON_AND_ORGANIZATION ( #196, #101 ) ;
#59 = ORIENTED_EDGE ( 'NONE', *, *, #186, .F. ) ;
#60 = APPROVAL_STATUS ( 'not_yet_approved' ) ;
#61 = VERTEX_POINT ( 'NONE', #194 ) ;
#62 = CYLINDRICAL_SURFACE ( 'NONE', #130, 4.000000000000000000 ) ;
#63 = DIRECTION ( 'NONE',  ( 0.000000000000000000, 0.000000000000000000, 1.000000000000000000 ) ) ;
#64 = CYLINDRICAL_SURFACE ( 'NONE', #148, 2.100000000000000089 ) ;
#65 = DIRECTION ( 'NONE',  ( -1.000000000000000000, 0.000000000000000000, 0.000000000000000000 ) ) ;
#66 = ORIENTED_EDGE ( 'NONE', *, *, #40, .T. ) ;
#67 = CARTESIAN_POINT ( 'NONE',  ( 2.100000000000000089, 2.571758278209441957E-16, 160.0000000000000000 ) ) ;
#68 = APPROVAL ( #60, 'NEURÈENÝ' ) ;
#69 = DIRECTION ( 'NONE',  ( 0.000000000000000000, 0.000000000000000000, 1.000000000000000000 ) ) ;
#70 = DIRECTION ( 'NONE',  ( 1.000000000000000000, 0.000000000000000000, -0.000000000000000000 ) ) ;
#71 = DIRECTION ( 'NONE',  ( -0.000000000000000000, -0.000000000000000000, -1.000000000000000000 ) ) ;
#72 = CC_DESIGN_DATE_AND_TIME_ASSIGNMENT ( #21, #125, ( #238 ) ) ;
#73 = CARTESIAN_POINT ( 'NONE',  ( 0.000000000000000000, 0.000000000000000000, 4.000000000000000000 ) ) ;
#74 = PERSON_AND_ORGANIZATION_ROLE ( 'creator' ) ;
#75 = DIRECTION ( 'NONE',  ( -0.000000000000000000, -0.000000000000000000, -1.000000000000000000 ) ) ;
#76 = AXIS2_PLACEMENT_3D ( 'NONE', #120, #137, #121 ) ;
#77 = PERSON_AND_ORGANIZATION_ROLE ( 'classification_officer' ) ;
#78 = APPLICATION_PROTOCOL_DEFINITION ( 'international standard', 'config_control_design', 1994, #192 ) ;
#79 = CIRCLE ( 'NONE', #119, 2.100000000000000089 ) ;
#80 = LOCAL_TIME ( 17, 34, 48.00000000000000000, #142 ) ;
#81 = APPROVAL_ROLE ( '' ) ;
#82 = ORIENTED_EDGE ( 'NONE', *, *, #83, .F. ) ;
#83 = EDGE_CURVE ( 'NONE', #93, #118, #89, .T. ) ;
#84 = ORIENTED_EDGE ( 'NONE', *, *, #189, .F. ) ;
#85 = AXIS2_PLACEMENT_3D ( 'NONE', #115, #135, #217 ) ;
#86 = AXIS2_PLACEMENT_3D ( 'NONE', #20, #237, #138 ) ;
#87 = FACE_OUTER_BOUND ( 'NONE', #145, .T. ) ;
#88 = FACE_OUTER_BOUND ( 'NONE', #197, .T. ) ;
#89 = LINE ( 'NONE', #175, #190 ) ;
#90 = DIRECTION ( 'NONE',  ( 1.000000000000000000, 0.000000000000000000, 0.000000000000000000 ) ) ;
#91 = FACE_OUTER_BOUND ( 'NONE', #172, .T. ) ;
#92 = EDGE_CURVE ( 'NONE', #170, #134, #210, .T. ) ;
#93 = VERTEX_POINT ( 'NONE', #67 ) ;
#94 = UNCERTAINTY_MEASURE_WITH_UNIT (LENGTH_MEASURE( 1.000000000000000082E-05 ), #108, 'distance_accuracy_value', 'NONE');
#95 = CARTESIAN_POINT ( 'NONE',  ( -2.100000000000000089, 0.000000000000000000, 4.000000000000000000 ) ) ;
#96 = EDGE_LOOP ( 'NONE', ( #47, #249 ) ) ;
#97 = EDGE_CURVE ( 'NONE', #118, #12, #79, .T. ) ;
#98 = AXIS2_PLACEMENT_3D ( 'NONE', #226, #129, #33 ) ;
#99 = PRODUCT ( '3232', '3232', '', ( #168 ) ) ;
#100 = ORIENTED_EDGE ( 'NONE', *, *, #7, .T. ) ;
#101 = ORGANIZATION ( 'NEURÈENÝ', 'NEURÈENÝ', '' ) ;
#102 = APPLICATION_CONTEXT ( 'configuration controlled 3d designs of mechanical parts and assemblies' ) ;
#103 = AXIS2_PLACEMENT_3D ( 'NONE', #252, #69, #70 ) ;
#104 = ORIENTED_EDGE ( 'NONE', *, *, #83, .T. ) ;
#105 = AXIS2_PLACEMENT_3D ( 'NONE', #17, #184, #151 ) ;
#106 = COORDINATED_UNIVERSAL_TIME_OFFSET ( 1, 0, .AHEAD. ) ;
#107 = PERSON_AND_ORGANIZATION ( #196, #101 ) ;
#108 =( LENGTH_UNIT ( ) NAMED_UNIT ( * ) SI_UNIT ( .MILLI., .METRE. ) );
#109 = APPROVAL_PERSON_ORGANIZATION ( #58, #206, #81 ) ;
#110 = CARTESIAN_POINT ( 'NONE',  ( 0.000000000000000000, 0.000000000000000000, 4.000000000000000000 ) ) ;
#111 = APPROVAL_STATUS ( 'not_yet_approved' ) ;
#112 = ORIENTED_EDGE ( 'NONE', *, *, #139, .T. ) ;
#113 = DIRECTION ( 'NONE',  ( 0.000000000000000000, 0.000000000000000000, 1.000000000000000000 ) ) ;
#114 = DIRECTION ( 'NONE',  ( -1.000000000000000000, 0.000000000000000000, 0.000000000000000000 ) ) ;
#115 = CARTESIAN_POINT ( 'NONE',  ( 0.000000000000000000, 0.000000000000000000, 160.0000000000000000 ) ) ;
#116 = CC_DESIGN_SECURITY_CLASSIFICATION ( #55, ( #250 ) ) ;
#117 = APPROVAL_DATE_TIME ( #54, #223 ) ;
#118 = VERTEX_POINT ( 'NONE', #176 ) ;
#119 = AXIS2_PLACEMENT_3D ( 'NONE', #110, #245, #48 ) ;
#120 = CARTESIAN_POINT ( 'NONE',  ( 0.000000000000000000, 0.000000000000000000, 4.000000000000000000 ) ) ;
#121 = DIRECTION ( 'NONE',  ( 1.000000000000000000, 0.000000000000000000, 0.000000000000000000 ) ) ;
#122 = CIRCLE ( 'NONE', #76, 4.000000000000000000 ) ;
#123 = PERSON_AND_ORGANIZATION_ROLE ( 'design_owner' ) ;
#124 = ADVANCED_FACE ( 'NONE', ( #225 ), #131, .T. ) ;
#125 = DATE_TIME_ROLE ( 'creation_date' ) ;
#126 = DIRECTION ( 'NONE',  ( 0.000000000000000000, 0.000000000000000000, 1.000000000000000000 ) ) ;
#127 = ORIENTED_EDGE ( 'NONE', *, *, #186, .T. ) ;
#128 = ADVANCED_FACE ( 'NONE', ( #193 ), #174, .T. ) ;
#129 = DIRECTION ( 'NONE',  ( 0.000000000000000000, 0.000000000000000000, 1.000000000000000000 ) ) ;
#130 = AXIS2_PLACEMENT_3D ( 'NONE', #73, #75, #202 ) ;
#131 = PLANE ( 'NONE',  #103 ) ;
#132 = CARTESIAN_POINT ( 'NONE',  ( -2.100000000000000089, 0.000000000000000000, 160.0000000000000000 ) ) ;
#133 = VECTOR ( 'NONE', #71, 1000.000000000000000 ) ;
#134 = VERTEX_POINT ( 'NONE', #214 ) ;
#135 = DIRECTION ( 'NONE',  ( 0.000000000000000000, 0.000000000000000000, 1.000000000000000000 ) ) ;
#136 = CALENDAR_DATE ( 2023, 13, 2 ) ;
#137 = DIRECTION ( 'NONE',  ( 0.000000000000000000, 0.000000000000000000, 1.000000000000000000 ) ) ;
#138 = DIRECTION ( 'NONE',  ( 1.000000000000000000, 0.000000000000000000, 0.000000000000000000 ) ) ;
#139 = EDGE_CURVE ( 'NONE', #187, #61, #178, .T. ) ;
#140 = CIRCLE ( 'NONE', #28, 2.100000000000000089 ) ;
#141 = VECTOR ( 'NONE', #195, 1000.000000000000000 ) ;
#142 = COORDINATED_UNIVERSAL_TIME_OFFSET ( 1, 0, .AHEAD. ) ;
#143 = AXIS2_PLACEMENT_3D ( 'NONE', #13, #126, #154 ) ;
#144 = VERTEX_POINT ( 'NONE', #181 ) ;
#145 = EDGE_LOOP ( 'NONE', ( #82, #59, #242, #100 ) ) ;
#146 = CC_DESIGN_PERSON_AND_ORGANIZATION_ASSIGNMENT ( #23, #74, ( #250 ) ) ;
#147 = CARTESIAN_POINT ( 'NONE',  ( 0.000000000000000000, 0.000000000000000000, 160.0000000000000000 ) ) ;
#148 = AXIS2_PLACEMENT_3D ( 'NONE', #147, #227, #49 ) ;
#149 = CC_DESIGN_APPROVAL ( #206, ( #238 ) ) ;
#150 = CARTESIAN_POINT ( 'NONE',  ( -4.000000000000000000, 0.000000000000000000, 4.000000000000000000 ) ) ;
#151 = DIRECTION ( 'NONE',  ( 1.000000000000000000, 0.000000000000000000, 0.000000000000000000 ) ) ;
#152 = LINE ( 'NONE', #132, #215 ) ;
#153 = ADVANCED_FACE ( 'NONE', ( #87 ), #64, .T. ) ;
#154 = DIRECTION ( 'NONE',  ( 1.000000000000000000, 0.000000000000000000, 0.000000000000000000 ) ) ;
#155 = CARTESIAN_POINT ( 'NONE',  ( 0.000000000000000000, 0.000000000000000000, 4.000000000000000000 ) ) ;
#156 = PLANE ( 'NONE',  #50 ) ;
#157 = DIRECTION ( 'NONE',  ( 1.000000000000000000, 0.000000000000000000, -0.000000000000000000 ) ) ;
#158 =( NAMED_UNIT ( * ) PLANE_ANGLE_UNIT ( ) SI_UNIT ( $, .RADIAN. ) );
#159 = LINE ( 'NONE', #233, #141 ) ;
#160 = APPROVAL_ROLE ( '' ) ;
#161 = SECURITY_CLASSIFICATION_LEVEL ( 'unclassified' ) ;
#162 = PERSON_AND_ORGANIZATION ( #196, #101 ) ;
#163 = LOCAL_TIME ( 17, 34, 48.00000000000000000, #26 ) ;
#164 = EDGE_CURVE ( 'NONE', #61, #187, #179, .T. ) ;
#165 =( NAMED_UNIT ( * ) SI_UNIT ( $, .STERADIAN. ) SOLID_ANGLE_UNIT ( ) );
#166 = CALENDAR_DATE ( 2023, 13, 2 ) ;
#167 = PERSON_AND_ORGANIZATION ( #196, #101 ) ;
#168 = MECHANICAL_CONTEXT ( 'NONE', #192, 'mechanical' ) ;
#169 = CC_DESIGN_PERSON_AND_ORGANIZATION_ASSIGNMENT ( #162, #253, ( #250 ) ) ;
#170 = VERTEX_POINT ( 'NONE', #150 ) ;
#171 = CIRCLE ( 'NONE', #85, 2.100000000000000089 ) ;
#172 = EDGE_LOOP ( 'NONE', ( #45, #251 ) ) ;
#173 = EDGE_CURVE ( 'NONE', #170, #187, #159, .T. ) ;
#174 = CYLINDRICAL_SURFACE ( 'NONE', #14, 2.100000000000000089 ) ;
#175 = CARTESIAN_POINT ( 'NONE',  ( 2.100000000000000089, 2.571758278209441957E-16, 160.0000000000000000 ) ) ;
#176 = CARTESIAN_POINT ( 'NONE',  ( 2.100000000000000089, 2.571758278209441957E-16, 4.000000000000000000 ) ) ;
#177 = DIRECTION ( 'NONE',  ( 1.000000000000000000, 0.000000000000000000, 0.000000000000000000 ) ) ;
#178 = CIRCLE ( 'NONE', #143, 4.000000000000000000 ) ;
#179 = CIRCLE ( 'NONE', #22, 4.000000000000000000 ) ;
#180 = LOCAL_TIME ( 17, 34, 48.00000000000000000, #38 ) ;
#181 = CARTESIAN_POINT ( 'NONE',  ( -2.100000000000000089, 0.000000000000000000, 160.0000000000000000 ) ) ;
#182 = CC_DESIGN_PERSON_AND_ORGANIZATION_ASSIGNMENT ( #167, #123, ( #99 ) ) ;
#183 = CARTESIAN_POINT ( 'NONE',  ( 4.000000000000000000, 4.898587196589412829E-16, 4.000000000000000000 ) ) ;
#184 = DIRECTION ( 'NONE',  ( 0.000000000000000000, 0.000000000000000000, 1.000000000000000000 ) ) ;
#185 = EDGE_CURVE ( 'NONE', #144, #12, #152, .T. ) ;
#186 = EDGE_CURVE ( 'NONE', #144, #93, #171, .T. ) ;
#187 = VERTEX_POINT ( 'NONE', #239 ) ;
#188 = PLANE ( 'NONE',  #254 ) ;
#189 = EDGE_CURVE ( 'NONE', #134, #170, #122, .T. ) ;
#190 = VECTOR ( 'NONE', #3, 1000.000000000000000 ) ;
#191 = CYLINDRICAL_SURFACE ( 'NONE', #42, 4.000000000000000000 ) ;
#192 = APPLICATION_CONTEXT ( 'configuration controlled 3d designs of mechanical parts and assemblies' ) ;
#193 = FACE_OUTER_BOUND ( 'NONE', #209, .T. ) ;
#194 = CARTESIAN_POINT ( 'NONE',  ( 4.000000000000000000, 4.898587196589412829E-16, 0.000000000000000000 ) ) ;
#195 = DIRECTION ( 'NONE',  ( -0.000000000000000000, -0.000000000000000000, -1.000000000000000000 ) ) ;
#196 = PERSON ( 'NEURÈENÝ', 'NEURÈENÝ', 'NEURÈENÝ', ('NEURÈENÝ'), ('NEURÈENÝ'), ('NEURÈENÝ') ) ;
#197 = EDGE_LOOP ( 'NONE', ( #84, #66, #34, #52 ) ) ;
#198 = ADVANCED_BREP_SHAPE_REPRESENTATION ( '3232', ( #218, #86 ), #37 ) ;
#199 = ORIENTED_EDGE ( 'NONE', *, *, #228, .F. ) ;
#200 = LOCAL_TIME ( 17, 34, 48.00000000000000000, #106 ) ;
#201 = CC_DESIGN_DATE_AND_TIME_ASSIGNMENT ( #25, #9, ( #55 ) ) ;
#202 = DIRECTION ( 'NONE',  ( -1.000000000000000000, 0.000000000000000000, 0.000000000000000000 ) ) ;
#203 = APPLICATION_PROTOCOL_DEFINITION ( 'international standard', 'config_control_design', 1994, #102 ) ;
#204 = APPROVAL_DATE_TIME ( #222, #206 ) ;
#205 = PERSON_AND_ORGANIZATION ( #196, #101 ) ;
#206 = APPROVAL ( #41, 'NEURÈENÝ' ) ;
#207 = CALENDAR_DATE ( 2023, 13, 2 ) ;
#208 = CARTESIAN_POINT ( 'NONE',  ( 0.000000000000000000, 0.000000000000000000, 4.000000000000000000 ) ) ;
#209 = EDGE_LOOP ( 'NONE', ( #199, #104, #241, #232 ) ) ;
#210 = CIRCLE ( 'NONE', #98, 4.000000000000000000 ) ;
#211 = ORIENTED_EDGE ( 'NONE', *, *, #228, .T. ) ;
#212 = CARTESIAN_POINT ( 'NONE',  ( 0.000000000000000000, 0.000000000000000000, 0.000000000000000000 ) ) ;
#213 = ADVANCED_FACE ( 'NONE', ( #39 ), #188, .F. ) ;
#214 = CARTESIAN_POINT ( 'NONE',  ( 4.000000000000000000, 4.898587196589412829E-16, 4.000000000000000000 ) ) ;
#215 = VECTOR ( 'NONE', #31, 1000.000000000000000 ) ;
#216 = EDGE_LOOP ( 'NONE', ( #127, #211 ) ) ;
#217 = DIRECTION ( 'NONE',  ( 1.000000000000000000, 0.000000000000000000, 0.000000000000000000 ) ) ;
#218 = MANIFOLD_SOLID_BREP ( 'Pøidat vysunutím3', #32 ) ;
#219 = CIRCLE ( 'NONE', #105, 2.100000000000000089 ) ;
#220 = CALENDAR_DATE ( 2023, 13, 2 ) ;
#221 = PERSON_AND_ORGANIZATION ( #196, #101 ) ;
#222 = DATE_AND_TIME ( #166, #80 ) ;
#223 = APPROVAL ( #111, 'NEURÈENÝ' ) ;
#224 = APPROVAL_PERSON_ORGANIZATION ( #107, #223, #160 ) ;
#225 = FACE_OUTER_BOUND ( 'NONE', #216, .T. ) ;
#226 = CARTESIAN_POINT ( 'NONE',  ( 0.000000000000000000, 0.000000000000000000, 4.000000000000000000 ) ) ;
#227 = DIRECTION ( 'NONE',  ( -0.000000000000000000, -0.000000000000000000, -1.000000000000000000 ) ) ;
#228 = EDGE_CURVE ( 'NONE', #93, #144, #219, .T. ) ;
#229 = APPROVAL_DATE_TIME ( #4, #68 ) ;
#230 = ORIENTED_EDGE ( 'NONE', *, *, #173, .T. ) ;
#231 = DIRECTION ( 'NONE',  ( 1.000000000000000000, 0.000000000000000000, -0.000000000000000000 ) ) ;
#232 = ORIENTED_EDGE ( 'NONE', *, *, #185, .F. ) ;
#233 = CARTESIAN_POINT ( 'NONE',  ( -4.000000000000000000, 0.000000000000000000, 4.000000000000000000 ) ) ;
#234 = COORDINATED_UNIVERSAL_TIME_OFFSET ( 1, 0, .AHEAD. ) ;
#235 = PRODUCT_DEFINITION_SHAPE ( 'NONE', 'NONE',  #238 ) ;
#236 = CC_DESIGN_PERSON_AND_ORGANIZATION_ASSIGNMENT ( #19, #77, ( #55 ) ) ;
#237 = DIRECTION ( 'NONE',  ( 0.000000000000000000, 0.000000000000000000, 1.000000000000000000 ) ) ;
#238 = PRODUCT_DEFINITION ( 'NEZNÁMÝ', '', #250, #5 ) ;
#239 = CARTESIAN_POINT ( 'NONE',  ( -4.000000000000000000, 0.000000000000000000, 0.000000000000000000 ) ) ;
#240 = CALENDAR_DATE ( 2023, 13, 2 ) ;
#241 = ORIENTED_EDGE ( 'NONE', *, *, #97, .T. ) ;
#242 = ORIENTED_EDGE ( 'NONE', *, *, #185, .T. ) ;
#243 = APPROVAL_PERSON_ORGANIZATION ( #221, #68, #43 ) ;
#244 = EDGE_LOOP ( 'NONE', ( #35, #18 ) ) ;
#245 = DIRECTION ( 'NONE',  ( 0.000000000000000000, 0.000000000000000000, 1.000000000000000000 ) ) ;
#246 = CARTESIAN_POINT ( 'NONE',  ( 0.000000000000000000, 0.000000000000000000, 0.000000000000000000 ) ) ;
#247 = DIRECTION ( 'NONE',  ( -0.000000000000000000, -0.000000000000000000, -1.000000000000000000 ) ) ;
#248 = CARTESIAN_POINT ( 'NONE',  ( 0.000000000000000000, 0.000000000000000000, 4.000000000000000000 ) ) ;
#249 = ORIENTED_EDGE ( 'NONE', *, *, #164, .F. ) ;
#250 = PRODUCT_DEFINITION_FORMATION_WITH_SPECIFIED_SOURCE ( 'LIBOVOLNÝ', '', #99, .NOT_KNOWN. ) ;
#251 = ORIENTED_EDGE ( 'NONE', *, *, #189, .T. ) ;
#252 = CARTESIAN_POINT ( 'NONE',  ( 0.000000000000000000, 0.000000000000000000, 160.0000000000000000 ) ) ;
#253 = PERSON_AND_ORGANIZATION_ROLE ( 'design_supplier' ) ;
#254 = AXIS2_PLACEMENT_3D ( 'NONE', #246, #63, #157 ) ;
#255 = ADVANCED_FACE ( 'NONE', ( #88 ), #62, .T. ) ;
ENDSEC;
END-ISO-10303-21;
