ISO-10303-21;
HEADER;
FILE_DESCRIPTION (( 'STEP AP203' ),
    '1' );
FILE_NAME ('119a.STEP',
    '2023-02-13T08:42:12',
    ( '' ),
    ( '' ),
    'SwSTEP 2.0',
    'SolidWorks 2019',
    '' );
FILE_SCHEMA (( 'CONFIG_CONTROL_DESIGN' ));
ENDSEC;

DATA;
#1 = PLANE ( 'NONE',  #240 ) ;
#2 =( NAMED_UNIT ( * ) SI_UNIT ( $, .STERADIAN. ) SOLID_ANGLE_UNIT ( ) );
#3 = ADVANCED_FACE ( 'NONE', ( #107 ), #1, .F. ) ;
#4 = PRODUCT ( '119a', '119a', '', ( #65 ) ) ;
#5 = DIRECTION ( 'NONE',  ( -0.000000000000000000, -0.000000000000000000, -1.000000000000000000 ) ) ;
#6 = CARTESIAN_POINT ( 'NONE',  ( 0.000000000000000000, 0.000000000000000000, 1000.000000000000000 ) ) ;
#7 = ORIENTED_EDGE ( 'NONE', *, *, #180, .F. ) ;
#8 = CALENDAR_DATE ( 2023, 13, 2 ) ;
#9 = DIRECTION ( 'NONE',  ( 1.000000000000000000, 0.000000000000000000, 0.000000000000000000 ) ) ;
#10 = VECTOR ( 'NONE', #5, 1000.000000000000000 ) ;
#11 = CYLINDRICAL_SURFACE ( 'NONE', #239, 9.000000000000000000 ) ;
#12 = ORIENTED_EDGE ( 'NONE', *, *, #31, .T. ) ;
#13 = DATE_AND_TIME ( #54, #162 ) ;
#14 = DIRECTION ( 'NONE',  ( -1.000000000000000000, 0.000000000000000000, 0.000000000000000000 ) ) ;
#15 = APPROVAL_STATUS ( 'not_yet_approved' ) ;
#16 = APPROVAL_DATE_TIME ( #13, #166 ) ;
#17 = AXIS2_PLACEMENT_3D ( 'NONE', #44, #176, #165 ) ;
#18 = EDGE_LOOP ( 'NONE', ( #21, #12, #106, #103 ) ) ;
#19 = AXIS2_PLACEMENT_3D ( 'NONE', #190, #51, #14 ) ;
#20 = ADVANCED_FACE ( 'NONE', ( #203 ), #87, .T. ) ;
#21 = ORIENTED_EDGE ( 'NONE', *, *, #82, .F. ) ;
#22 =( LENGTH_UNIT ( ) NAMED_UNIT ( * ) SI_UNIT ( .MILLI., .METRE. ) );
#23 = LINE ( 'NONE', #64, #137 ) ;
#24 = PERSON_AND_ORGANIZATION_ROLE ( 'design_owner' ) ;
#25 = CC_DESIGN_PERSON_AND_ORGANIZATION_ASSIGNMENT ( #35, #145, ( #101 ) ) ;
#26 = ORIENTED_EDGE ( 'NONE', *, *, #237, .T. ) ;
#27 = LINE ( 'NONE', #117, #79 ) ;
#28 = APPLICATION_CONTEXT ( 'configuration controlled 3d designs of mechanical parts and assemblies' ) ;
#29 = SECURITY_CLASSIFICATION_LEVEL ( 'unclassified' ) ;
#30 = FACE_OUTER_BOUND ( 'NONE', #182, .T. ) ;
#31 = EDGE_CURVE ( 'NONE', #181, #253, #23, .T. ) ;
#32 = COORDINATED_UNIVERSAL_TIME_OFFSET ( 1, 0, .AHEAD. ) ;
#33 = CARTESIAN_POINT ( 'NONE',  ( -13.00000000000000178, 0.000000000000000000, 7.000000000000000000 ) ) ;
#34 = CIRCLE ( 'NONE', #143, 13.00000000000000178 ) ;
#35 = PERSON_AND_ORGANIZATION ( #198, #184 ) ;
#36 = FACE_OUTER_BOUND ( 'NONE', #170, .T. ) ;
#37 = APPROVAL ( #220, 'NEURÈENÝ' ) ;
#38 = CALENDAR_DATE ( 2023, 13, 2 ) ;
#39 = ADVANCED_BREP_SHAPE_REPRESENTATION ( '119a', ( #67, #17 ), #134 ) ;
#40 = AXIS2_PLACEMENT_3D ( 'NONE', #97, #56, #74 ) ;
#41 = CC_DESIGN_SECURITY_CLASSIFICATION ( #101, ( #236 ) ) ;
#42 = VERTEX_POINT ( 'NONE', #45 ) ;
#43 = DIRECTION ( 'NONE',  ( 0.000000000000000000, 0.000000000000000000, 1.000000000000000000 ) ) ;
#44 = CARTESIAN_POINT ( 'NONE',  ( 0.000000000000000000, 0.000000000000000000, 0.000000000000000000 ) ) ;
#45 = CARTESIAN_POINT ( 'NONE',  ( 9.000000000000000000, 1.102182119232617714E-15, 1000.000000000000000 ) ) ;
#46 = DATE_AND_TIME ( #91, #245 ) ;
#47 = CC_DESIGN_PERSON_AND_ORGANIZATION_ASSIGNMENT ( #243, #136, ( #234 ) ) ;
#48 = VERTEX_POINT ( 'NONE', #187 ) ;
#49 = DIRECTION ( 'NONE',  ( -1.000000000000000000, 0.000000000000000000, 0.000000000000000000 ) ) ;
#50 = UNCERTAINTY_MEASURE_WITH_UNIT (LENGTH_MEASURE( 1.000000000000000082E-05 ), #22, 'distance_accuracy_value', 'NONE');
#51 = DIRECTION ( 'NONE',  ( -0.000000000000000000, -0.000000000000000000, -1.000000000000000000 ) ) ;
#52 = CARTESIAN_POINT ( 'NONE',  ( 0.000000000000000000, 0.000000000000000000, 7.000000000000000000 ) ) ;
#53 = VERTEX_POINT ( 'NONE', #135 ) ;
#54 = CALENDAR_DATE ( 2023, 13, 2 ) ;
#55 = CARTESIAN_POINT ( 'NONE',  ( 0.000000000000000000, 0.000000000000000000, 7.000000000000000000 ) ) ;
#56 = DIRECTION ( 'NONE',  ( 0.000000000000000000, 0.000000000000000000, 1.000000000000000000 ) ) ;
#57 = ORIENTED_EDGE ( 'NONE', *, *, #225, .F. ) ;
#58 = CC_DESIGN_APPROVAL ( #37, ( #234 ) ) ;
#59 = ADVANCED_FACE ( 'NONE', ( #36 ), #70, .T. ) ;
#60 = EDGE_LOOP ( 'NONE', ( #7, #164 ) ) ;
#61 = DIRECTION ( 'NONE',  ( -0.000000000000000000, -0.000000000000000000, -1.000000000000000000 ) ) ;
#62 = CIRCLE ( 'NONE', #78, 9.000000000000000000 ) ;
#63 =( NAMED_UNIT ( * ) PLANE_ANGLE_UNIT ( ) SI_UNIT ( $, .RADIAN. ) );
#64 = CARTESIAN_POINT ( 'NONE',  ( 13.00000000000000178, 1.592040838891559293E-15, 7.000000000000000000 ) ) ;
#65 = MECHANICAL_CONTEXT ( 'NONE', #151, 'mechanical' ) ;
#66 = DIRECTION ( 'NONE',  ( -0.000000000000000000, -0.000000000000000000, -1.000000000000000000 ) ) ;
#67 = MANIFOLD_SOLID_BREP ( 'Pøidat vysunutím3', #154 ) ;
#68 = ADVANCED_FACE ( 'NONE', ( #247, #169 ), #212, .T. ) ;
#69 = DIRECTION ( 'NONE',  ( 1.000000000000000000, 0.000000000000000000, 0.000000000000000000 ) ) ;
#70 = CYLINDRICAL_SURFACE ( 'NONE', #122, 13.00000000000000178 ) ;
#71 = CIRCLE ( 'NONE', #216, 9.000000000000000000 ) ;
#72 = LINE ( 'NONE', #159, #10 ) ;
#73 = AXIS2_PLACEMENT_3D ( 'NONE', #55, #248, #209 ) ;
#74 = DIRECTION ( 'NONE',  ( 1.000000000000000000, 0.000000000000000000, 0.000000000000000000 ) ) ;
#75 = VERTEX_POINT ( 'NONE', #33 ) ;
#76 = PERSON_AND_ORGANIZATION_ROLE ( 'creator' ) ;
#77 = FACE_OUTER_BOUND ( 'NONE', #178, .T. ) ;
#78 = AXIS2_PLACEMENT_3D ( 'NONE', #175, #192, #9 ) ;
#79 = VECTOR ( 'NONE', #99, 1000.000000000000000 ) ;
#80 = DATE_TIME_ROLE ( 'classification_date' ) ;
#81 = DIRECTION ( 'NONE',  ( -1.000000000000000000, 0.000000000000000000, 0.000000000000000000 ) ) ;
#82 = EDGE_CURVE ( 'NONE', #181, #75, #125, .T. ) ;
#83 = ORIENTED_EDGE ( 'NONE', *, *, #206, .F. ) ;
#84 = ORIENTED_EDGE ( 'NONE', *, *, #171, .T. ) ;
#85 = EDGE_CURVE ( 'NONE', #193, #42, #71, .T. ) ;
#86 = DIRECTION ( 'NONE',  ( 1.000000000000000000, 0.000000000000000000, -0.000000000000000000 ) ) ;
#87 = PLANE ( 'NONE',  #221 ) ;
#88 = PERSON_AND_ORGANIZATION ( #198, #184 ) ;
#89 = DIRECTION ( 'NONE',  ( 0.000000000000000000, 0.000000000000000000, 1.000000000000000000 ) ) ;
#90 = LOCAL_TIME ( 9, 42, 12.00000000000000000, #118 ) ;
#91 = CALENDAR_DATE ( 2023, 13, 2 ) ;
#92 = DIRECTION ( 'NONE',  ( 0.000000000000000000, 0.000000000000000000, 1.000000000000000000 ) ) ;
#93 = APPROVAL_DATE_TIME ( #46, #37 ) ;
#94 = DIRECTION ( 'NONE',  ( 0.000000000000000000, 0.000000000000000000, 1.000000000000000000 ) ) ;
#95 = CARTESIAN_POINT ( 'NONE',  ( 13.00000000000000178, 1.592040838891559293E-15, 7.000000000000000000 ) ) ;
#96 = AXIS2_PLACEMENT_3D ( 'NONE', #6, #197, #49 ) ;
#97 = CARTESIAN_POINT ( 'NONE',  ( 0.000000000000000000, 0.000000000000000000, 1000.000000000000000 ) ) ;
#98 = ORIENTED_EDGE ( 'NONE', *, *, #171, .F. ) ;
#99 = DIRECTION ( 'NONE',  ( -0.000000000000000000, -0.000000000000000000, -1.000000000000000000 ) ) ;
#100 = DATE_AND_TIME ( #102, #90 ) ;
#101 = SECURITY_CLASSIFICATION ( '', '', #29 ) ;
#102 = CALENDAR_DATE ( 2023, 13, 2 ) ;
#103 = ORIENTED_EDGE ( 'NONE', *, *, #158, .F. ) ;
#104 = CIRCLE ( 'NONE', #168, 9.000000000000000000 ) ;
#105 = ORIENTED_EDGE ( 'NONE', *, *, #82, .T. ) ;
#106 = ORIENTED_EDGE ( 'NONE', *, *, #131, .T. ) ;
#107 = FACE_OUTER_BOUND ( 'NONE', #196, .T. ) ;
#108 = DESIGN_CONTEXT ( 'detailed design', #28, 'design' ) ;
#109 = PERSON_AND_ORGANIZATION ( #198, #184 ) ;
#110 = EDGE_CURVE ( 'NONE', #75, #181, #34, .T. ) ;
#111 = DATE_TIME_ROLE ( 'creation_date' ) ;
#112 = APPLICATION_PROTOCOL_DEFINITION ( 'international standard', 'config_control_design', 1994, #28 ) ;
#113 = CIRCLE ( 'NONE', #252, 13.00000000000000178 ) ;
#114 = DIRECTION ( 'NONE',  ( 1.000000000000000000, 0.000000000000000000, -0.000000000000000000 ) ) ;
#115 = ADVANCED_FACE ( 'NONE', ( #77 ), #153, .T. ) ;
#116 = PERSON_AND_ORGANIZATION ( #198, #184 ) ;
#117 = CARTESIAN_POINT ( 'NONE',  ( -13.00000000000000178, 0.000000000000000000, 7.000000000000000000 ) ) ;
#118 = COORDINATED_UNIVERSAL_TIME_OFFSET ( 1, 0, .AHEAD. ) ;
#119 = DIRECTION ( 'NONE',  ( 1.000000000000000000, 0.000000000000000000, 0.000000000000000000 ) ) ;
#120 = ORIENTED_EDGE ( 'NONE', *, *, #158, .T. ) ;
#121 = PERSON_AND_ORGANIZATION_ROLE ( 'design_supplier' ) ;
#122 = AXIS2_PLACEMENT_3D ( 'NONE', #52, #244, #140 ) ;
#123 = DIRECTION ( 'NONE',  ( 0.000000000000000000, 0.000000000000000000, 1.000000000000000000 ) ) ;
#124 = ADVANCED_FACE ( 'NONE', ( #233 ), #226, .T. ) ;
#125 = CIRCLE ( 'NONE', #73, 13.00000000000000178 ) ;
#126 = CC_DESIGN_PERSON_AND_ORGANIZATION_ASSIGNMENT ( #251, #121, ( #236 ) ) ;
#127 = ORIENTED_EDGE ( 'NONE', *, *, #110, .F. ) ;
#128 = CIRCLE ( 'NONE', #160, 13.00000000000000178 ) ;
#129 = DIRECTION ( 'NONE',  ( 1.000000000000000000, 0.000000000000000000, -0.000000000000000000 ) ) ;
#130 = APPROVAL_PERSON_ORGANIZATION ( #109, #166, #133 ) ;
#131 = EDGE_CURVE ( 'NONE', #253, #230, #128, .T. ) ;
#132 = COORDINATED_UNIVERSAL_TIME_OFFSET ( 1, 0, .AHEAD. ) ;
#133 = APPROVAL_ROLE ( '' ) ;
#134 =( GEOMETRIC_REPRESENTATION_CONTEXT ( 3 ) GLOBAL_UNCERTAINTY_ASSIGNED_CONTEXT ( ( #50 ) ) GLOBAL_UNIT_ASSIGNED_CONTEXT ( ( #22, #63, #2 ) ) REPRESENTATION_CONTEXT ( 'NONE', 'WORKASPACE' ) );
#135 = CARTESIAN_POINT ( 'NONE',  ( -9.000000000000000000, 0.000000000000000000, 7.000000000000000000 ) ) ;
#136 = PERSON_AND_ORGANIZATION_ROLE ( 'creator' ) ;
#137 = VECTOR ( 'NONE', #66, 1000.000000000000000 ) ;
#138 = DIRECTION ( 'NONE',  ( 0.000000000000000000, 0.000000000000000000, 1.000000000000000000 ) ) ;
#139 = PERSON_AND_ORGANIZATION ( #198, #184 ) ;
#140 = DIRECTION ( 'NONE',  ( -1.000000000000000000, 0.000000000000000000, 0.000000000000000000 ) ) ;
#141 = EDGE_LOOP ( 'NONE', ( #173, #84 ) ) ;
#142 = DIRECTION ( 'NONE',  ( 1.000000000000000000, 0.000000000000000000, 0.000000000000000000 ) ) ;
#143 = AXIS2_PLACEMENT_3D ( 'NONE', #195, #123, #246 ) ;
#144 = CARTESIAN_POINT ( 'NONE',  ( -9.000000000000000000, 0.000000000000000000, 1000.000000000000000 ) ) ;
#145 = PERSON_AND_ORGANIZATION_ROLE ( 'classification_officer' ) ;
#146 = ORIENTED_EDGE ( 'NONE', *, *, #222, .T. ) ;
#147 = PRODUCT_DEFINITION_SHAPE ( 'NONE', 'NONE',  #234 ) ;
#148 = ORIENTED_EDGE ( 'NONE', *, *, #206, .T. ) ;
#149 = VECTOR ( 'NONE', #229, 1000.000000000000000 ) ;
#150 = APPLICATION_PROTOCOL_DEFINITION ( 'international standard', 'config_control_design', 1994, #151 ) ;
#151 = APPLICATION_CONTEXT ( 'configuration controlled 3d designs of mechanical parts and assemblies' ) ;
#152 = LINE ( 'NONE', #211, #149 ) ;
#153 = CYLINDRICAL_SURFACE ( 'NONE', #96, 9.000000000000000000 ) ;
#154 = CLOSED_SHELL ( 'NONE', ( #115, #124, #59, #68, #3, #254, #20 ) ) ;
#155 = DIRECTION ( 'NONE',  ( 1.000000000000000000, 0.000000000000000000, 0.000000000000000000 ) ) ;
#156 = PERSON_AND_ORGANIZATION ( #198, #184 ) ;
#157 = DIRECTION ( 'NONE',  ( 0.000000000000000000, 0.000000000000000000, 1.000000000000000000 ) ) ;
#158 = EDGE_CURVE ( 'NONE', #75, #230, #27, .T. ) ;
#159 = CARTESIAN_POINT ( 'NONE',  ( -9.000000000000000000, 0.000000000000000000, 1000.000000000000000 ) ) ;
#160 = AXIS2_PLACEMENT_3D ( 'NONE', #242, #210, #119 ) ;
#161 = APPROVAL_DATE_TIME ( #100, #200 ) ;
#162 = LOCAL_TIME ( 9, 42, 12.00000000000000000, #32 ) ;
#163 = EDGE_LOOP ( 'NONE', ( #218, #105 ) ) ;
#164 = ORIENTED_EDGE ( 'NONE', *, *, #222, .F. ) ;
#165 = DIRECTION ( 'NONE',  ( 1.000000000000000000, 0.000000000000000000, 0.000000000000000000 ) ) ;
#166 = APPROVAL ( #188, 'NEURÈENÝ' ) ;
#167 = CARTESIAN_POINT ( 'NONE',  ( 0.000000000000000000, 0.000000000000000000, 0.000000000000000000 ) ) ;
#168 = AXIS2_PLACEMENT_3D ( 'NONE', #214, #92, #155 ) ;
#169 = FACE_OUTER_BOUND ( 'NONE', #163, .T. ) ;
#170 = EDGE_LOOP ( 'NONE', ( #255, #127, #120, #217 ) ) ;
#171 = EDGE_CURVE ( 'NONE', #42, #193, #250, .T. ) ;
#172 = CARTESIAN_POINT ( 'NONE',  ( 0.000000000000000000, 0.000000000000000000, 7.000000000000000000 ) ) ;
#173 = ORIENTED_EDGE ( 'NONE', *, *, #85, .T. ) ;
#174 = APPROVAL_ROLE ( '' ) ;
#175 = CARTESIAN_POINT ( 'NONE',  ( 0.000000000000000000, 0.000000000000000000, 7.000000000000000000 ) ) ;
#176 = DIRECTION ( 'NONE',  ( 0.000000000000000000, 0.000000000000000000, 1.000000000000000000 ) ) ;
#177 = CC_DESIGN_PERSON_AND_ORGANIZATION_ASSIGNMENT ( #139, #76, ( #236 ) ) ;
#178 = EDGE_LOOP ( 'NONE', ( #98, #26, #146, #83 ) ) ;
#179 = ORIENTED_EDGE ( 'NONE', *, *, #85, .F. ) ;
#180 = EDGE_CURVE ( 'NONE', #53, #48, #62, .T. ) ;
#181 = VERTEX_POINT ( 'NONE', #95 ) ;
#182 = EDGE_LOOP ( 'NONE', ( #241, #179, #148, #207 ) ) ;
#183 = CARTESIAN_POINT ( 'NONE',  ( 0.000000000000000000, 0.000000000000000000, 1000.000000000000000 ) ) ;
#184 = ORGANIZATION ( 'NEURÈENÝ', 'NEURÈENÝ', '' ) ;
#185 = PRODUCT_RELATED_PRODUCT_CATEGORY ( 'detail', '', ( #4 ) ) ;
#186 = APPROVAL_PERSON_ORGANIZATION ( #156, #200, #174 ) ;
#187 = CARTESIAN_POINT ( 'NONE',  ( 9.000000000000000000, 1.102182119232617714E-15, 7.000000000000000000 ) ) ;
#188 = APPROVAL_STATUS ( 'not_yet_approved' ) ;
#189 = CARTESIAN_POINT ( 'NONE',  ( 0.000000000000000000, 0.000000000000000000, 1000.000000000000000 ) ) ;
#190 = CARTESIAN_POINT ( 'NONE',  ( 0.000000000000000000, 0.000000000000000000, 7.000000000000000000 ) ) ;
#191 = COORDINATED_UNIVERSAL_TIME_OFFSET ( 1, 0, .AHEAD. ) ;
#192 = DIRECTION ( 'NONE',  ( 0.000000000000000000, 0.000000000000000000, 1.000000000000000000 ) ) ;
#193 = VERTEX_POINT ( 'NONE', #144 ) ;
#194 = CC_DESIGN_APPROVAL ( #166, ( #236 ) ) ;
#195 = CARTESIAN_POINT ( 'NONE',  ( 0.000000000000000000, 0.000000000000000000, 7.000000000000000000 ) ) ;
#196 = EDGE_LOOP ( 'NONE', ( #57, #202 ) ) ;
#197 = DIRECTION ( 'NONE',  ( -0.000000000000000000, -0.000000000000000000, -1.000000000000000000 ) ) ;
#198 = PERSON ( 'NEURÈENÝ', 'NEURÈENÝ', 'NEURÈENÝ', ('NEURÈENÝ'), ('NEURÈENÝ'), ('NEURÈENÝ') ) ;
#199 = COORDINATED_UNIVERSAL_TIME_OFFSET ( 1, 0, .AHEAD. ) ;
#200 = APPROVAL ( #15, 'NEURÈENÝ' ) ;
#201 = DATE_AND_TIME ( #38, #208 ) ;
#202 = ORIENTED_EDGE ( 'NONE', *, *, #131, .F. ) ;
#203 = FACE_OUTER_BOUND ( 'NONE', #141, .T. ) ;
#204 = LOCAL_TIME ( 9, 42, 12.00000000000000000, #132 ) ;
#205 = DATE_AND_TIME ( #8, #204 ) ;
#206 = EDGE_CURVE ( 'NONE', #193, #53, #72, .T. ) ;
#207 = ORIENTED_EDGE ( 'NONE', *, *, #180, .T. ) ;
#208 = LOCAL_TIME ( 9, 42, 12.00000000000000000, #199 ) ;
#209 = DIRECTION ( 'NONE',  ( 1.000000000000000000, 0.000000000000000000, 0.000000000000000000 ) ) ;
#210 = DIRECTION ( 'NONE',  ( 0.000000000000000000, 0.000000000000000000, 1.000000000000000000 ) ) ;
#211 = CARTESIAN_POINT ( 'NONE',  ( 9.000000000000000000, 1.102182119232617714E-15, 1000.000000000000000 ) ) ;
#212 = PLANE ( 'NONE',  #227 ) ;
#213 = CC_DESIGN_DATE_AND_TIME_ASSIGNMENT ( #205, #111, ( #234 ) ) ;
#214 = CARTESIAN_POINT ( 'NONE',  ( 0.000000000000000000, 0.000000000000000000, 7.000000000000000000 ) ) ;
#215 = APPROVAL_PERSON_ORGANIZATION ( #116, #37, #223 ) ;
#216 = AXIS2_PLACEMENT_3D ( 'NONE', #189, #138, #142 ) ;
#217 = ORIENTED_EDGE ( 'NONE', *, *, #225, .T. ) ;
#218 = ORIENTED_EDGE ( 'NONE', *, *, #110, .T. ) ;
#219 = CARTESIAN_POINT ( 'NONE',  ( 0.000000000000000000, 0.000000000000000000, 0.000000000000000000 ) ) ;
#220 = APPROVAL_STATUS ( 'not_yet_approved' ) ;
#221 = AXIS2_PLACEMENT_3D ( 'NONE', #183, #89, #86 ) ;
#222 = EDGE_CURVE ( 'NONE', #48, #53, #104, .T. ) ;
#223 = APPROVAL_ROLE ( '' ) ;
#224 = CARTESIAN_POINT ( 'NONE',  ( 13.00000000000000178, 1.592040838891559293E-15, 0.000000000000000000 ) ) ;
#225 = EDGE_CURVE ( 'NONE', #230, #253, #113, .T. ) ;
#226 = CYLINDRICAL_SURFACE ( 'NONE', #19, 13.00000000000000178 ) ;
#227 = AXIS2_PLACEMENT_3D ( 'NONE', #172, #94, #114 ) ;
#228 = SHAPE_DEFINITION_REPRESENTATION ( #147, #39 ) ;
#229 = DIRECTION ( 'NONE',  ( -0.000000000000000000, -0.000000000000000000, -1.000000000000000000 ) ) ;
#230 = VERTEX_POINT ( 'NONE', #231 ) ;
#231 = CARTESIAN_POINT ( 'NONE',  ( -13.00000000000000178, 0.000000000000000000, 0.000000000000000000 ) ) ;
#232 = CC_DESIGN_APPROVAL ( #200, ( #101 ) ) ;
#233 = FACE_OUTER_BOUND ( 'NONE', #18, .T. ) ;
#234 = PRODUCT_DEFINITION ( 'NEZNÁMÝ', '', #236, #108 ) ;
#235 = CARTESIAN_POINT ( 'NONE',  ( 0.000000000000000000, 0.000000000000000000, 1000.000000000000000 ) ) ;
#236 = PRODUCT_DEFINITION_FORMATION_WITH_SPECIFIED_SOURCE ( 'LIBOVOLNÝ', '', #4, .NOT_KNOWN. ) ;
#237 = EDGE_CURVE ( 'NONE', #42, #48, #152, .T. ) ;
#238 = CC_DESIGN_DATE_AND_TIME_ASSIGNMENT ( #201, #80, ( #101 ) ) ;
#239 = AXIS2_PLACEMENT_3D ( 'NONE', #235, #61, #81 ) ;
#240 = AXIS2_PLACEMENT_3D ( 'NONE', #219, #43, #129 ) ;
#241 = ORIENTED_EDGE ( 'NONE', *, *, #237, .F. ) ;
#242 = CARTESIAN_POINT ( 'NONE',  ( 0.000000000000000000, 0.000000000000000000, 0.000000000000000000 ) ) ;
#243 = PERSON_AND_ORGANIZATION ( #198, #184 ) ;
#244 = DIRECTION ( 'NONE',  ( -0.000000000000000000, -0.000000000000000000, -1.000000000000000000 ) ) ;
#245 = LOCAL_TIME ( 9, 42, 12.00000000000000000, #191 ) ;
#246 = DIRECTION ( 'NONE',  ( 1.000000000000000000, 0.000000000000000000, 0.000000000000000000 ) ) ;
#247 = FACE_BOUND ( 'NONE', #60, .T. ) ;
#248 = DIRECTION ( 'NONE',  ( 0.000000000000000000, 0.000000000000000000, 1.000000000000000000 ) ) ;
#249 = CC_DESIGN_PERSON_AND_ORGANIZATION_ASSIGNMENT ( #88, #24, ( #4 ) ) ;
#250 = CIRCLE ( 'NONE', #40, 9.000000000000000000 ) ;
#251 = PERSON_AND_ORGANIZATION ( #198, #184 ) ;
#252 = AXIS2_PLACEMENT_3D ( 'NONE', #167, #157, #69 ) ;
#253 = VERTEX_POINT ( 'NONE', #224 ) ;
#254 = ADVANCED_FACE ( 'NONE', ( #30 ), #11, .T. ) ;
#255 = ORIENTED_EDGE ( 'NONE', *, *, #31, .F. ) ;
ENDSEC;
END-ISO-10303-21;
