ISO-10303-21;
HEADER;
FILE_DESCRIPTION (( 'STEP AP203' ),
    '1' );
FILE_NAME ('ad7d.STEP',
    '2023-02-13T08:42:25',
    ( '' ),
    ( '' ),
    'SwSTEP 2.0',
    'SolidWorks 2019',
    '' );
FILE_SCHEMA (( 'CONFIG_CONTROL_DESIGN' ));
ENDSEC;

DATA;
#1 = CC_DESIGN_PERSON_AND_ORGANIZATION_ASSIGNMENT ( #40, #112, ( #7 ) ) ;
#2 = CYLINDRICAL_SURFACE ( 'NONE', #87, 9.000000000000000000 ) ;
#3 = ADVANCED_FACE ( 'NONE', ( #55 ), #38, .T. ) ;
#4 = DIRECTION ( 'NONE',  ( 0.000000000000000000, 0.000000000000000000, 1.000000000000000000 ) ) ;
#5 = EDGE_LOOP ( 'NONE', ( #44, #52, #194, #6 ) ) ;
#6 = ORIENTED_EDGE ( 'NONE', *, *, #80, .F. ) ;
#7 = SECURITY_CLASSIFICATION ( '', '', #62 ) ;
#8 = ORIENTED_EDGE ( 'NONE', *, *, #47, .T. ) ;
#9 = DIRECTION ( 'NONE',  ( -0.000000000000000000, -0.000000000000000000, -1.000000000000000000 ) ) ;
#10 = APPROVAL_PERSON_ORGANIZATION ( #168, #192, #91 ) ;
#11 = APPROVAL_STATUS ( 'not_yet_approved' ) ;
#12 = CARTESIAN_POINT ( 'NONE',  ( 13.00000000000000178, 1.592040838891559293E-15, 7.000000000000000000 ) ) ;
#13 = DATE_AND_TIME ( #157, #253 ) ;
#14 = DIRECTION ( 'NONE',  ( -0.000000000000000000, -0.000000000000000000, -1.000000000000000000 ) ) ;
#15 = ORIENTED_EDGE ( 'NONE', *, *, #80, .T. ) ;
#16 = CALENDAR_DATE ( 2023, 13, 2 ) ;
#17 = DIRECTION ( 'NONE',  ( 0.000000000000000000, 0.000000000000000000, 1.000000000000000000 ) ) ;
#18 = CIRCLE ( 'NONE', #178, 9.000000000000000000 ) ;
#19 = DIRECTION ( 'NONE',  ( 0.000000000000000000, 0.000000000000000000, 1.000000000000000000 ) ) ;
#20 = PERSON_AND_ORGANIZATION_ROLE ( 'creator' ) ;
#21 = CARTESIAN_POINT ( 'NONE',  ( 9.000000000000000000, 1.102182119232617714E-15, 800.0000000000000000 ) ) ;
#22 = CARTESIAN_POINT ( 'NONE',  ( -13.00000000000000178, 0.000000000000000000, 7.000000000000000000 ) ) ;
#23 = EDGE_CURVE ( 'NONE', #41, #139, #150, .T. ) ;
#24 = AXIS2_PLACEMENT_3D ( 'NONE', #196, #138, #250 ) ;
#25 = CARTESIAN_POINT ( 'NONE',  ( 0.000000000000000000, 0.000000000000000000, 0.000000000000000000 ) ) ;
#26 = ORIENTED_EDGE ( 'NONE', *, *, #224, .T. ) ;
#27 = EDGE_LOOP ( 'NONE', ( #229, #163 ) ) ;
#28 = VERTEX_POINT ( 'NONE', #95 ) ;
#29 = CC_DESIGN_PERSON_AND_ORGANIZATION_ASSIGNMENT ( #60, #36, ( #84 ) ) ;
#30 = AXIS2_PLACEMENT_3D ( 'NONE', #190, #14, #208 ) ;
#31 = ADVANCED_FACE ( 'NONE', ( #90 ), #193, .F. ) ;
#32 = DIRECTION ( 'NONE',  ( 1.000000000000000000, 0.000000000000000000, 0.000000000000000000 ) ) ;
#33 = COORDINATED_UNIVERSAL_TIME_OFFSET ( 1, 0, .AHEAD. ) ;
#34 = CARTESIAN_POINT ( 'NONE',  ( 0.000000000000000000, 0.000000000000000000, 7.000000000000000000 ) ) ;
#35 = VECTOR ( 'NONE', #145, 1000.000000000000000 ) ;
#36 = PERSON_AND_ORGANIZATION_ROLE ( 'design_supplier' ) ;
#37 = ORIENTED_EDGE ( 'NONE', *, *, #246, .F. ) ;
#38 = CYLINDRICAL_SURFACE ( 'NONE', #30, 13.00000000000000178 ) ;
#39 = VERTEX_POINT ( 'NONE', #165 ) ;
#40 = PERSON_AND_ORGANIZATION ( #184, #45 ) ;
#41 = VERTEX_POINT ( 'NONE', #215 ) ;
#42 = PLANE ( 'NONE',  #204 ) ;
#43 = COORDINATED_UNIVERSAL_TIME_OFFSET ( 1, 0, .AHEAD. ) ;
#44 = ORIENTED_EDGE ( 'NONE', *, *, #191, .F. ) ;
#45 = ORGANIZATION ( 'NEURÈENÝ', 'NEURÈENÝ', '' ) ;
#46 = COORDINATED_UNIVERSAL_TIME_OFFSET ( 1, 0, .AHEAD. ) ;
#47 = EDGE_CURVE ( 'NONE', #244, #39, #186, .T. ) ;
#48 = APPLICATION_PROTOCOL_DEFINITION ( 'international standard', 'config_control_design', 1994, #69 ) ;
#49 = DIRECTION ( 'NONE',  ( 0.000000000000000000, 0.000000000000000000, 1.000000000000000000 ) ) ;
#50 = AXIS2_PLACEMENT_3D ( 'NONE', #252, #108, #156 ) ;
#51 = ADVANCED_FACE ( 'NONE', ( #254, #57 ), #61, .T. ) ;
#52 = ORIENTED_EDGE ( 'NONE', *, *, #205, .T. ) ;
#53 = LOCAL_TIME ( 9, 42, 25.00000000000000000, #33 ) ;
#54 = CARTESIAN_POINT ( 'NONE',  ( 9.000000000000000000, 1.102182119232617714E-15, 7.000000000000000000 ) ) ;
#55 = FACE_OUTER_BOUND ( 'NONE', #105, .T. ) ;
#56 = PERSON_AND_ORGANIZATION ( #184, #45 ) ;
#57 = FACE_OUTER_BOUND ( 'NONE', #200, .T. ) ;
#58 = APPROVAL_ROLE ( '' ) ;
#59 = CARTESIAN_POINT ( 'NONE',  ( -9.000000000000000000, 0.000000000000000000, 800.0000000000000000 ) ) ;
#60 = PERSON_AND_ORGANIZATION ( #184, #45 ) ;
#61 = PLANE ( 'NONE',  #171 ) ;
#62 = SECURITY_CLASSIFICATION_LEVEL ( 'unclassified' ) ;
#63 = EDGE_CURVE ( 'NONE', #179, #28, #18, .T. ) ;
#64 = MECHANICAL_CONTEXT ( 'NONE', #161, 'mechanical' ) ;
#65 = CIRCLE ( 'NONE', #245, 9.000000000000000000 ) ;
#66 = AXIS2_PLACEMENT_3D ( 'NONE', #118, #75, #169 ) ;
#67 = UNCERTAINTY_MEASURE_WITH_UNIT (LENGTH_MEASURE( 1.000000000000000082E-05 ), #239, 'distance_accuracy_value', 'NONE');
#68 = EDGE_LOOP ( 'NONE', ( #201, #104, #15, #230 ) ) ;
#69 = APPLICATION_CONTEXT ( 'configuration controlled 3d designs of mechanical parts and assemblies' ) ;
#70 = MANIFOLD_SOLID_BREP ( 'Pøidat vysunutím3', #182 ) ;
#71 = AXIS2_PLACEMENT_3D ( 'NONE', #101, #49, #102 ) ;
#72 = DIRECTION ( 'NONE',  ( 0.000000000000000000, 0.000000000000000000, 1.000000000000000000 ) ) ;
#73 = ORIENTED_EDGE ( 'NONE', *, *, #77, .F. ) ;
#74 = CALENDAR_DATE ( 2023, 13, 2 ) ;
#75 = DIRECTION ( 'NONE',  ( 0.000000000000000000, 0.000000000000000000, 1.000000000000000000 ) ) ;
#76 = CARTESIAN_POINT ( 'NONE',  ( 0.000000000000000000, 0.000000000000000000, 800.0000000000000000 ) ) ;
#77 = EDGE_CURVE ( 'NONE', #237, #147, #238, .T. ) ;
#78 = APPROVAL_DATE_TIME ( #93, #192 ) ;
#79 = DIRECTION ( 'NONE',  ( -0.000000000000000000, -0.000000000000000000, -1.000000000000000000 ) ) ;
#80 = EDGE_CURVE ( 'NONE', #244, #28, #174, .T. ) ;
#81 = PERSON_AND_ORGANIZATION ( #184, #45 ) ;
#82 = ORIENTED_EDGE ( 'NONE', *, *, #191, .T. ) ;
#83 = CARTESIAN_POINT ( 'NONE',  ( 0.000000000000000000, 0.000000000000000000, 0.000000000000000000 ) ) ;
#84 = PRODUCT_DEFINITION_FORMATION_WITH_SPECIFIED_SOURCE ( 'LIBOVOLNÝ', '', #188, .NOT_KNOWN. ) ;
#85 =( NAMED_UNIT ( * ) SI_UNIT ( $, .STERADIAN. ) SOLID_ANGLE_UNIT ( ) );
#86 = ADVANCED_FACE ( 'NONE', ( #216 ), #185, .T. ) ;
#87 = AXIS2_PLACEMENT_3D ( 'NONE', #175, #242, #144 ) ;
#88 = ORIENTED_EDGE ( 'NONE', *, *, #77, .T. ) ;
#89 = VECTOR ( 'NONE', #220, 1000.000000000000000 ) ;
#90 = FACE_OUTER_BOUND ( 'NONE', #27, .T. ) ;
#91 = APPROVAL_ROLE ( '' ) ;
#92 = FACE_OUTER_BOUND ( 'NONE', #5, .T. ) ;
#93 = DATE_AND_TIME ( #100, #225 ) ;
#94 = ADVANCED_FACE ( 'NONE', ( #209 ), #42, .T. ) ;
#95 = CARTESIAN_POINT ( 'NONE',  ( -9.000000000000000000, 0.000000000000000000, 7.000000000000000000 ) ) ;
#96 = APPROVAL_PERSON_ORGANIZATION ( #81, #120, #154 ) ;
#97 = DIRECTION ( 'NONE',  ( 1.000000000000000000, 0.000000000000000000, -0.000000000000000000 ) ) ;
#98 = LINE ( 'NONE', #255, #162 ) ;
#99 = CC_DESIGN_PERSON_AND_ORGANIZATION_ASSIGNMENT ( #56, #251, ( #181 ) ) ;
#100 = CALENDAR_DATE ( 2023, 13, 2 ) ;
#101 = CARTESIAN_POINT ( 'NONE',  ( 0.000000000000000000, 0.000000000000000000, 7.000000000000000000 ) ) ;
#102 = DIRECTION ( 'NONE',  ( 1.000000000000000000, 0.000000000000000000, 0.000000000000000000 ) ) ;
#103 = DIRECTION ( 'NONE',  ( 0.000000000000000000, 0.000000000000000000, 1.000000000000000000 ) ) ;
#104 = ORIENTED_EDGE ( 'NONE', *, *, #47, .F. ) ;
#105 = EDGE_LOOP ( 'NONE', ( #213, #73, #248, #114 ) ) ;
#106 = PERSON_AND_ORGANIZATION ( #184, #45 ) ;
#107 = AXIS2_PLACEMENT_3D ( 'NONE', #187, #133, #247 ) ;
#108 = DIRECTION ( 'NONE',  ( 0.000000000000000000, 0.000000000000000000, 1.000000000000000000 ) ) ;
#109 = DATE_TIME_ROLE ( 'creation_date' ) ;
#110 = CIRCLE ( 'NONE', #217, 13.00000000000000178 ) ;
#111 = CARTESIAN_POINT ( 'NONE',  ( 13.00000000000000178, 1.592040838891559293E-15, 0.000000000000000000 ) ) ;
#112 = PERSON_AND_ORGANIZATION_ROLE ( 'classification_officer' ) ;
#113 = ORIENTED_EDGE ( 'NONE', *, *, #143, .T. ) ;
#114 = ORIENTED_EDGE ( 'NONE', *, *, #23, .T. ) ;
#115 = CARTESIAN_POINT ( 'NONE',  ( 0.000000000000000000, 0.000000000000000000, 800.0000000000000000 ) ) ;
#116 = ORIENTED_EDGE ( 'NONE', *, *, #63, .F. ) ;
#117 = PERSON_AND_ORGANIZATION ( #184, #45 ) ;
#118 = CARTESIAN_POINT ( 'NONE',  ( 0.000000000000000000, 0.000000000000000000, 0.000000000000000000 ) ) ;
#119 = EDGE_LOOP ( 'NONE', ( #183, #116 ) ) ;
#120 = APPROVAL ( #214, 'NEURÈENÝ' ) ;
#121 = DATE_AND_TIME ( #74, #141 ) ;
#122 = LINE ( 'NONE', #21, #35 ) ;
#123 = CARTESIAN_POINT ( 'NONE',  ( -13.00000000000000178, 0.000000000000000000, 7.000000000000000000 ) ) ;
#124 =( NAMED_UNIT ( * ) PLANE_ANGLE_UNIT ( ) SI_UNIT ( $, .RADIAN. ) );
#125 = DESIGN_CONTEXT ( 'detailed design', #69, 'design' ) ;
#126 = VECTOR ( 'NONE', #79, 1000.000000000000000 ) ;
#127 = APPLICATION_PROTOCOL_DEFINITION ( 'international standard', 'config_control_design', 1994, #161 ) ;
#128 = CC_DESIGN_PERSON_AND_ORGANIZATION_ASSIGNMENT ( #117, #20, ( #84 ) ) ;
#129 = AXIS2_PLACEMENT_3D ( 'NONE', #135, #132, #212 ) ;
#130 = CC_DESIGN_APPROVAL ( #120, ( #84 ) ) ;
#131 = EDGE_CURVE ( 'NONE', #28, #179, #226, .T. ) ;
#132 = DIRECTION ( 'NONE',  ( -0.000000000000000000, -0.000000000000000000, -1.000000000000000000 ) ) ;
#133 = DIRECTION ( 'NONE',  ( 0.000000000000000000, 0.000000000000000000, 1.000000000000000000 ) ) ;
#134 = DATE_AND_TIME ( #16, #53 ) ;
#135 = CARTESIAN_POINT ( 'NONE',  ( 0.000000000000000000, 0.000000000000000000, 800.0000000000000000 ) ) ;
#136 = ORIENTED_EDGE ( 'NONE', *, *, #224, .F. ) ;
#137 = APPROVAL_STATUS ( 'not_yet_approved' ) ;
#138 = DIRECTION ( 'NONE',  ( -0.000000000000000000, -0.000000000000000000, -1.000000000000000000 ) ) ;
#139 = VERTEX_POINT ( 'NONE', #111 ) ;
#140 = SHAPE_DEFINITION_REPRESENTATION ( #152, #235 ) ;
#141 = LOCAL_TIME ( 9, 42, 25.00000000000000000, #43 ) ;
#142 = DIRECTION ( 'NONE',  ( 1.000000000000000000, 0.000000000000000000, 0.000000000000000000 ) ) ;
#143 = EDGE_CURVE ( 'NONE', #147, #139, #98, .T. ) ;
#144 = DIRECTION ( 'NONE',  ( -1.000000000000000000, 0.000000000000000000, 0.000000000000000000 ) ) ;
#145 = DIRECTION ( 'NONE',  ( -0.000000000000000000, -0.000000000000000000, -1.000000000000000000 ) ) ;
#146 = APPROVAL ( #137, 'NEURÈENÝ' ) ;
#147 = VERTEX_POINT ( 'NONE', #12 ) ;
#148 = PRODUCT_RELATED_PRODUCT_CATEGORY ( 'detail', '', ( #188 ) ) ;
#149 = EDGE_LOOP ( 'NONE', ( #136, #113, #228, #37 ) ) ;
#150 = CIRCLE ( 'NONE', #66, 13.00000000000000178 ) ;
#151 = DIRECTION ( 'NONE',  ( 0.000000000000000000, 0.000000000000000000, 1.000000000000000000 ) ) ;
#152 = PRODUCT_DEFINITION_SHAPE ( 'NONE', 'NONE',  #181 ) ;
#153 = DIRECTION ( 'NONE',  ( 1.000000000000000000, 0.000000000000000000, 0.000000000000000000 ) ) ;
#154 = APPROVAL_ROLE ( '' ) ;
#155 = DIRECTION ( 'NONE',  ( 0.000000000000000000, 0.000000000000000000, 1.000000000000000000 ) ) ;
#156 = DIRECTION ( 'NONE',  ( 1.000000000000000000, 0.000000000000000000, -0.000000000000000000 ) ) ;
#157 = CALENDAR_DATE ( 2023, 13, 2 ) ;
#158 = PERSON_AND_ORGANIZATION_ROLE ( 'design_owner' ) ;
#159 = LINE ( 'NONE', #123, #89 ) ;
#160 = DIRECTION ( 'NONE',  ( 1.000000000000000000, 0.000000000000000000, 0.000000000000000000 ) ) ;
#161 = APPLICATION_CONTEXT ( 'configuration controlled 3d designs of mechanical parts and assemblies' ) ;
#162 = VECTOR ( 'NONE', #9, 1000.000000000000000 ) ;
#163 = ORIENTED_EDGE ( 'NONE', *, *, #240, .F. ) ;
#164 = AXIS2_PLACEMENT_3D ( 'NONE', #76, #155, #32 ) ;
#165 = CARTESIAN_POINT ( 'NONE',  ( 9.000000000000000000, 1.102182119232617714E-15, 800.0000000000000000 ) ) ;
#166 = DATE_TIME_ROLE ( 'classification_date' ) ;
#167 = CYLINDRICAL_SURFACE ( 'NONE', #129, 9.000000000000000000 ) ;
#168 = PERSON_AND_ORGANIZATION ( #184, #45 ) ;
#169 = DIRECTION ( 'NONE',  ( 1.000000000000000000, 0.000000000000000000, 0.000000000000000000 ) ) ;
#170 = DATE_AND_TIME ( #233, #176 ) ;
#171 = AXIS2_PLACEMENT_3D ( 'NONE', #234, #72, #97 ) ;
#172 = DIRECTION ( 'NONE',  ( 1.000000000000000000, 0.000000000000000000, -0.000000000000000000 ) ) ;
#173 = COORDINATED_UNIVERSAL_TIME_OFFSET ( 1, 0, .AHEAD. ) ;
#174 = LINE ( 'NONE', #59, #126 ) ;
#175 = CARTESIAN_POINT ( 'NONE',  ( 0.000000000000000000, 0.000000000000000000, 800.0000000000000000 ) ) ;
#176 = LOCAL_TIME ( 9, 42, 25.00000000000000000, #173 ) ;
#177 = DIRECTION ( 'NONE',  ( 1.000000000000000000, 0.000000000000000000, 0.000000000000000000 ) ) ;
#178 = AXIS2_PLACEMENT_3D ( 'NONE', #236, #151, #227 ) ;
#179 = VERTEX_POINT ( 'NONE', #54 ) ;
#180 = ADVANCED_FACE ( 'NONE', ( #92 ), #167, .T. ) ;
#181 = PRODUCT_DEFINITION ( 'NEZNÁMÝ', '', #84, #125 ) ;
#182 = CLOSED_SHELL ( 'NONE', ( #180, #86, #3, #51, #31, #203, #94 ) ) ;
#183 = ORIENTED_EDGE ( 'NONE', *, *, #131, .F. ) ;
#184 = PERSON ( 'NEURÈENÝ', 'NEURÈENÝ', 'NEURÈENÝ', ('NEURÈENÝ'), ('NEURÈENÝ'), ('NEURÈENÝ') ) ;
#185 = CYLINDRICAL_SURFACE ( 'NONE', #24, 13.00000000000000178 ) ;
#186 = CIRCLE ( 'NONE', #164, 9.000000000000000000 ) ;
#187 = CARTESIAN_POINT ( 'NONE',  ( 0.000000000000000000, 0.000000000000000000, 7.000000000000000000 ) ) ;
#188 = PRODUCT ( 'ad7d', 'ad7d', '', ( #64 ) ) ;
#189 = COORDINATED_UNIVERSAL_TIME_OFFSET ( 1, 0, .AHEAD. ) ;
#190 = CARTESIAN_POINT ( 'NONE',  ( 0.000000000000000000, 0.000000000000000000, 7.000000000000000000 ) ) ;
#191 = EDGE_CURVE ( 'NONE', #39, #244, #65, .T. ) ;
#192 = APPROVAL ( #11, 'NEURÈENÝ' ) ;
#193 = PLANE ( 'NONE',  #50 ) ;
#194 = ORIENTED_EDGE ( 'NONE', *, *, #63, .T. ) ;
#195 = CC_DESIGN_SECURITY_CLASSIFICATION ( #7, ( #84 ) ) ;
#196 = CARTESIAN_POINT ( 'NONE',  ( 0.000000000000000000, 0.000000000000000000, 7.000000000000000000 ) ) ;
#197 = APPROVAL_DATE_TIME ( #13, #120 ) ;
#198 = FACE_OUTER_BOUND ( 'NONE', #68, .T. ) ;
#199 =( GEOMETRIC_REPRESENTATION_CONTEXT ( 3 ) GLOBAL_UNCERTAINTY_ASSIGNED_CONTEXT ( ( #67 ) ) GLOBAL_UNIT_ASSIGNED_CONTEXT ( ( #239, #124, #85 ) ) REPRESENTATION_CONTEXT ( 'NONE', 'WORKASPACE' ) );
#200 = EDGE_LOOP ( 'NONE', ( #88, #26 ) ) ;
#201 = ORIENTED_EDGE ( 'NONE', *, *, #205, .F. ) ;
#202 = EDGE_LOOP ( 'NONE', ( #8, #82 ) ) ;
#203 = ADVANCED_FACE ( 'NONE', ( #198 ), #2, .T. ) ;
#204 = AXIS2_PLACEMENT_3D ( 'NONE', #115, #17, #172 ) ;
#205 = EDGE_CURVE ( 'NONE', #39, #179, #122, .T. ) ;
#206 = CC_DESIGN_APPROVAL ( #146, ( #181 ) ) ;
#207 = CIRCLE ( 'NONE', #71, 13.00000000000000178 ) ;
#208 = DIRECTION ( 'NONE',  ( -1.000000000000000000, 0.000000000000000000, 0.000000000000000000 ) ) ;
#209 = FACE_OUTER_BOUND ( 'NONE', #202, .T. ) ;
#210 = APPROVAL_PERSON_ORGANIZATION ( #211, #146, #58 ) ;
#211 = PERSON_AND_ORGANIZATION ( #184, #45 ) ;
#212 = DIRECTION ( 'NONE',  ( -1.000000000000000000, 0.000000000000000000, 0.000000000000000000 ) ) ;
#213 = ORIENTED_EDGE ( 'NONE', *, *, #143, .F. ) ;
#214 = APPROVAL_STATUS ( 'not_yet_approved' ) ;
#215 = CARTESIAN_POINT ( 'NONE',  ( -13.00000000000000178, 0.000000000000000000, 0.000000000000000000 ) ) ;
#216 = FACE_OUTER_BOUND ( 'NONE', #149, .T. ) ;
#217 = AXIS2_PLACEMENT_3D ( 'NONE', #83, #4, #177 ) ;
#218 = CARTESIAN_POINT ( 'NONE',  ( 0.000000000000000000, 0.000000000000000000, 800.0000000000000000 ) ) ;
#219 = CC_DESIGN_DATE_AND_TIME_ASSIGNMENT ( #170, #109, ( #181 ) ) ;
#220 = DIRECTION ( 'NONE',  ( -0.000000000000000000, -0.000000000000000000, -1.000000000000000000 ) ) ;
#221 = CC_DESIGN_DATE_AND_TIME_ASSIGNMENT ( #134, #166, ( #7 ) ) ;
#222 = CC_DESIGN_APPROVAL ( #192, ( #7 ) ) ;
#223 = DIRECTION ( 'NONE',  ( 0.000000000000000000, 0.000000000000000000, 1.000000000000000000 ) ) ;
#224 = EDGE_CURVE ( 'NONE', #147, #237, #207, .T. ) ;
#225 = LOCAL_TIME ( 9, 42, 25.00000000000000000, #189 ) ;
#226 = CIRCLE ( 'NONE', #243, 9.000000000000000000 ) ;
#227 = DIRECTION ( 'NONE',  ( 1.000000000000000000, 0.000000000000000000, 0.000000000000000000 ) ) ;
#228 = ORIENTED_EDGE ( 'NONE', *, *, #240, .T. ) ;
#229 = ORIENTED_EDGE ( 'NONE', *, *, #23, .F. ) ;
#230 = ORIENTED_EDGE ( 'NONE', *, *, #131, .T. ) ;
#231 = CC_DESIGN_PERSON_AND_ORGANIZATION_ASSIGNMENT ( #106, #158, ( #188 ) ) ;
#232 = AXIS2_PLACEMENT_3D ( 'NONE', #25, #223, #142 ) ;
#233 = CALENDAR_DATE ( 2023, 13, 2 ) ;
#234 = CARTESIAN_POINT ( 'NONE',  ( 0.000000000000000000, 0.000000000000000000, 7.000000000000000000 ) ) ;
#235 = ADVANCED_BREP_SHAPE_REPRESENTATION ( 'ad7d', ( #70, #232 ), #199 ) ;
#236 = CARTESIAN_POINT ( 'NONE',  ( 0.000000000000000000, 0.000000000000000000, 7.000000000000000000 ) ) ;
#237 = VERTEX_POINT ( 'NONE', #22 ) ;
#238 = CIRCLE ( 'NONE', #107, 13.00000000000000178 ) ;
#239 =( LENGTH_UNIT ( ) NAMED_UNIT ( * ) SI_UNIT ( .MILLI., .METRE. ) );
#240 = EDGE_CURVE ( 'NONE', #139, #41, #110, .T. ) ;
#241 = CARTESIAN_POINT ( 'NONE',  ( -9.000000000000000000, 0.000000000000000000, 800.0000000000000000 ) ) ;
#242 = DIRECTION ( 'NONE',  ( -0.000000000000000000, -0.000000000000000000, -1.000000000000000000 ) ) ;
#243 = AXIS2_PLACEMENT_3D ( 'NONE', #34, #19, #153 ) ;
#244 = VERTEX_POINT ( 'NONE', #241 ) ;
#245 = AXIS2_PLACEMENT_3D ( 'NONE', #218, #103, #160 ) ;
#246 = EDGE_CURVE ( 'NONE', #237, #41, #159, .T. ) ;
#247 = DIRECTION ( 'NONE',  ( 1.000000000000000000, 0.000000000000000000, 0.000000000000000000 ) ) ;
#248 = ORIENTED_EDGE ( 'NONE', *, *, #246, .T. ) ;
#249 = APPROVAL_DATE_TIME ( #121, #146 ) ;
#250 = DIRECTION ( 'NONE',  ( -1.000000000000000000, 0.000000000000000000, 0.000000000000000000 ) ) ;
#251 = PERSON_AND_ORGANIZATION_ROLE ( 'creator' ) ;
#252 = CARTESIAN_POINT ( 'NONE',  ( 0.000000000000000000, 0.000000000000000000, 0.000000000000000000 ) ) ;
#253 = LOCAL_TIME ( 9, 42, 25.00000000000000000, #46 ) ;
#254 = FACE_BOUND ( 'NONE', #119, .T. ) ;
#255 = CARTESIAN_POINT ( 'NONE',  ( 13.00000000000000178, 1.592040838891559293E-15, 7.000000000000000000 ) ) ;
ENDSEC;
END-ISO-10303-21;
