ISO-10303-21;
HEADER;
FILE_DESCRIPTION (( 'STEP AP203' ),
    '1' );
FILE_NAME ('7261.STEP',
    '2023-02-13T14:17:58',
    ( '' ),
    ( '' ),
    'SwSTEP 2.0',
    'SolidWorks 2019',
    '' );
FILE_SCHEMA (( 'CONFIG_CONTROL_DESIGN' ));
ENDSEC;

DATA;
#1 = PERSON_AND_ORGANIZATION ( #82, #45 ) ;
#2 = ORIENTED_EDGE ( 'NONE', *, *, #65, .F. ) ;
#3 = APPROVAL_DATE_TIME ( #9, #105 ) ;
#4 = CARTESIAN_POINT ( 'NONE',  ( 0.000000000000000000, 0.000000000000000000, 1200.000000000000000 ) ) ;
#5 = EDGE_LOOP ( 'NONE', ( #42, #180 ) ) ;
#6 = CC_DESIGN_DATE_AND_TIME_ASSIGNMENT ( #176, #55, ( #18 ) ) ;
#7 = PERSON_AND_ORGANIZATION_ROLE ( 'classification_officer' ) ;
#8 = ORIENTED_EDGE ( 'NONE', *, *, #140, .F. ) ;
#9 = DATE_AND_TIME ( #173, #218 ) ;
#10 = VERTEX_POINT ( 'NONE', #111 ) ;
#11 = ORIENTED_EDGE ( 'NONE', *, *, #185, .T. ) ;
#12 = APPROVAL ( #70, 'NEURÈENÝ' ) ;
#13 = CIRCLE ( 'NONE', #31, 7.000000000000000000 ) ;
#14 = DIRECTION ( 'NONE',  ( -0.000000000000000000, -0.000000000000000000, -1.000000000000000000 ) ) ;
#15 = APPROVAL_ROLE ( '' ) ;
#16 = AXIS2_PLACEMENT_3D ( 'NONE', #24, #88, #222 ) ;
#17 = AXIS2_PLACEMENT_3D ( 'NONE', #163, #250, #101 ) ;
#18 = PRODUCT_DEFINITION ( 'NEZNÁMÝ', '', #214, #183 ) ;
#19 = CC_DESIGN_APPROVAL ( #12, ( #214 ) ) ;
#20 = APPROVAL_STATUS ( 'not_yet_approved' ) ;
#21 = FACE_OUTER_BOUND ( 'NONE', #38, .T. ) ;
#22 = CALENDAR_DATE ( 2023, 13, 2 ) ;
#23 = EDGE_LOOP ( 'NONE', ( #175, #178 ) ) ;
#24 = CARTESIAN_POINT ( 'NONE',  ( 0.000000000000000000, 0.000000000000000000, 6.500000000000000000 ) ) ;
#25 = APPROVAL_ROLE ( '' ) ;
#26 = DIRECTION ( 'NONE',  ( -0.000000000000000000, -0.000000000000000000, -1.000000000000000000 ) ) ;
#27 = VERTEX_POINT ( 'NONE', #158 ) ;
#28 = CC_DESIGN_PERSON_AND_ORGANIZATION_ASSIGNMENT ( #235, #210, ( #129 ) ) ;
#29 = LOCAL_TIME ( 15, 17, 58.00000000000000000, #75 ) ;
#30 = ADVANCED_FACE ( 'NONE', ( #79, #249 ), #161, .T. ) ;
#31 = AXIS2_PLACEMENT_3D ( 'NONE', #98, #162, #228 ) ;
#32 = APPLICATION_PROTOCOL_DEFINITION ( 'international standard', 'config_control_design', 1994, #254 ) ;
#33 = CIRCLE ( 'NONE', #255, 7.000000000000000000 ) ;
#34 = CARTESIAN_POINT ( 'NONE',  ( 0.000000000000000000, 0.000000000000000000, 1200.000000000000000 ) ) ;
#35 = DATE_TIME_ROLE ( 'classification_date' ) ;
#36 = CARTESIAN_POINT ( 'NONE',  ( 0.000000000000000000, 0.000000000000000000, 1200.000000000000000 ) ) ;
#37 = COORDINATED_UNIVERSAL_TIME_OFFSET ( 1, 0, .AHEAD. ) ;
#38 = EDGE_LOOP ( 'NONE', ( #93, #136, #118, #109 ) ) ;
#39 = PLANE ( 'NONE',  #80 ) ;
#40 =( GEOMETRIC_REPRESENTATION_CONTEXT ( 3 ) GLOBAL_UNCERTAINTY_ASSIGNED_CONTEXT ( ( #102 ) ) GLOBAL_UNIT_ASSIGNED_CONTEXT ( ( #43, #119, #124 ) ) REPRESENTATION_CONTEXT ( 'NONE', 'WORKASPACE' ) );
#41 = DIRECTION ( 'NONE',  ( 1.000000000000000000, 0.000000000000000000, 0.000000000000000000 ) ) ;
#42 = ORIENTED_EDGE ( 'NONE', *, *, #44, .F. ) ;
#43 =( LENGTH_UNIT ( ) NAMED_UNIT ( * ) SI_UNIT ( .MILLI., .METRE. ) );
#44 = EDGE_CURVE ( 'NONE', #52, #10, #212, .T. ) ;
#45 = ORGANIZATION ( 'NEURÈENÝ', 'NEURÈENÝ', '' ) ;
#46 = DIRECTION ( 'NONE',  ( 1.000000000000000000, 0.000000000000000000, 0.000000000000000000 ) ) ;
#47 = CARTESIAN_POINT ( 'NONE',  ( 7.000000000000000000, 8.572527594031471218E-16, 0.000000000000000000 ) ) ;
#48 = ADVANCED_FACE ( 'NONE', ( #21 ), #245, .T. ) ;
#49 = CC_DESIGN_PERSON_AND_ORGANIZATION_ASSIGNMENT ( #149, #189, ( #214 ) ) ;
#50 = SECURITY_CLASSIFICATION ( '', '', #197 ) ;
#51 = DIRECTION ( 'NONE',  ( 0.000000000000000000, 0.000000000000000000, 1.000000000000000000 ) ) ;
#52 = VERTEX_POINT ( 'NONE', #99 ) ;
#53 = EDGE_CURVE ( 'NONE', #219, #59, #238, .T. ) ;
#54 = DIRECTION ( 'NONE',  ( 0.000000000000000000, 0.000000000000000000, 1.000000000000000000 ) ) ;
#55 = DATE_TIME_ROLE ( 'creation_date' ) ;
#56 = DIRECTION ( 'NONE',  ( 0.000000000000000000, 0.000000000000000000, 1.000000000000000000 ) ) ;
#57 = VERTEX_POINT ( 'NONE', #232 ) ;
#58 = AXIS2_PLACEMENT_3D ( 'NONE', #107, #54, #192 ) ;
#59 = VERTEX_POINT ( 'NONE', #47 ) ;
#60 = CARTESIAN_POINT ( 'NONE',  ( -7.000000000000000000, 0.000000000000000000, 0.000000000000000000 ) ) ;
#61 = ORIENTED_EDGE ( 'NONE', *, *, #203, .F. ) ;
#62 = CC_DESIGN_PERSON_AND_ORGANIZATION_ASSIGNMENT ( #113, #241, ( #18 ) ) ;
#63 = CYLINDRICAL_SURFACE ( 'NONE', #117, 4.000000000000000000 ) ;
#64 = AXIS2_PLACEMENT_3D ( 'NONE', #227, #155, #198 ) ;
#65 = EDGE_CURVE ( 'NONE', #74, #115, #104, .T. ) ;
#66 = APPROVAL_PERSON_ORGANIZATION ( #252, #105, #15 ) ;
#67 = PRODUCT_DEFINITION_SHAPE ( 'NONE', 'NONE',  #18 ) ;
#68 = APPROVAL_PERSON_ORGANIZATION ( #236, #164, #156 ) ;
#69 = DATE_AND_TIME ( #147, #29 ) ;
#70 = APPROVAL_STATUS ( 'not_yet_approved' ) ;
#71 = CYLINDRICAL_SURFACE ( 'NONE', #190, 4.000000000000000000 ) ;
#72 = ORIENTED_EDGE ( 'NONE', *, *, #95, .T. ) ;
#73 = DIRECTION ( 'NONE',  ( -0.000000000000000000, -0.000000000000000000, -1.000000000000000000 ) ) ;
#74 = VERTEX_POINT ( 'NONE', #177 ) ;
#75 = COORDINATED_UNIVERSAL_TIME_OFFSET ( 1, 0, .AHEAD. ) ;
#76 = EDGE_LOOP ( 'NONE', ( #172, #224 ) ) ;
#77 = PERSON_AND_ORGANIZATION ( #82, #45 ) ;
#78 = EDGE_LOOP ( 'NONE', ( #2, #205, #72, #87 ) ) ;
#79 = FACE_BOUND ( 'NONE', #5, .T. ) ;
#80 = AXIS2_PLACEMENT_3D ( 'NONE', #150, #51, #130 ) ;
#81 = AXIS2_PLACEMENT_3D ( 'NONE', #157, #195, #237 ) ;
#82 = PERSON ( 'NEURÈENÝ', 'NEURÈENÝ', 'NEURÈENÝ', ('NEURÈENÝ'), ('NEURÈENÝ'), ('NEURÈENÝ') ) ;
#83 = MANIFOLD_SOLID_BREP ( 'Pøidat vysunutím3', #97 ) ;
#84 = DATE_AND_TIME ( #110, #170 ) ;
#85 = FACE_OUTER_BOUND ( 'NONE', #86, .T. ) ;
#86 = EDGE_LOOP ( 'NONE', ( #196, #152 ) ) ;
#87 = ORIENTED_EDGE ( 'NONE', *, *, #233, .F. ) ;
#88 = DIRECTION ( 'NONE',  ( -0.000000000000000000, -0.000000000000000000, -1.000000000000000000 ) ) ;
#89 = LOCAL_TIME ( 15, 17, 58.00000000000000000, #243 ) ;
#90 = APPROVAL_DATE_TIME ( #84, #12 ) ;
#91 = ORIENTED_EDGE ( 'NONE', *, *, #242, .F. ) ;
#92 = LINE ( 'NONE', #239, #112 ) ;
#93 = ORIENTED_EDGE ( 'NONE', *, *, #185, .F. ) ;
#94 = AXIS2_PLACEMENT_3D ( 'NONE', #120, #125, #144 ) ;
#95 = EDGE_CURVE ( 'NONE', #10, #52, #151, .T. ) ;
#96 = APPLICATION_PROTOCOL_DEFINITION ( 'international standard', 'config_control_design', 1994, #166 ) ;
#97 = CLOSED_SHELL ( 'NONE', ( #206, #100, #48, #30, #187, #160, #153 ) ) ;
#98 = CARTESIAN_POINT ( 'NONE',  ( 0.000000000000000000, 0.000000000000000000, 0.000000000000000000 ) ) ;
#99 = CARTESIAN_POINT ( 'NONE',  ( -4.000000000000000000, 0.000000000000000000, 6.500000000000000000 ) ) ;
#100 = ADVANCED_FACE ( 'NONE', ( #171 ), #133, .T. ) ;
#101 = DIRECTION ( 'NONE',  ( 1.000000000000000000, 0.000000000000000000, 0.000000000000000000 ) ) ;
#102 = UNCERTAINTY_MEASURE_WITH_UNIT (LENGTH_MEASURE( 1.000000000000000082E-05 ), #43, 'distance_accuracy_value', 'NONE');
#103 = EDGE_CURVE ( 'NONE', #27, #57, #33, .T. ) ;
#104 = CIRCLE ( 'NONE', #141, 4.000000000000000000 ) ;
#105 = APPROVAL ( #126, 'NEURÈENÝ' ) ;
#106 = LINE ( 'NONE', #191, #145 ) ;
#107 = CARTESIAN_POINT ( 'NONE',  ( 0.000000000000000000, 0.000000000000000000, 6.500000000000000000 ) ) ;
#108 = CARTESIAN_POINT ( 'NONE',  ( -4.000000000000000000, 0.000000000000000000, 1200.000000000000000 ) ) ;
#109 = ORIENTED_EDGE ( 'NONE', *, *, #53, .T. ) ;
#110 = CALENDAR_DATE ( 2023, 13, 2 ) ;
#111 = CARTESIAN_POINT ( 'NONE',  ( 4.000000000000000000, 4.898587196589412829E-16, 6.500000000000000000 ) ) ;
#112 = VECTOR ( 'NONE', #148, 1000.000000000000000 ) ;
#113 = PERSON_AND_ORGANIZATION ( #82, #45 ) ;
#114 = DIRECTION ( 'NONE',  ( 0.000000000000000000, 0.000000000000000000, 1.000000000000000000 ) ) ;
#115 = VERTEX_POINT ( 'NONE', #108 ) ;
#116 = VECTOR ( 'NONE', #159, 1000.000000000000000 ) ;
#117 = AXIS2_PLACEMENT_3D ( 'NONE', #230, #14, #186 ) ;
#118 = ORIENTED_EDGE ( 'NONE', *, *, #209, .T. ) ;
#119 =( NAMED_UNIT ( * ) PLANE_ANGLE_UNIT ( ) SI_UNIT ( $, .RADIAN. ) );
#120 = CARTESIAN_POINT ( 'NONE',  ( 0.000000000000000000, 0.000000000000000000, 0.000000000000000000 ) ) ;
#121 = CC_DESIGN_APPROVAL ( #105, ( #18 ) ) ;
#122 = CC_DESIGN_DATE_AND_TIME_ASSIGNMENT ( #69, #35, ( #50 ) ) ;
#123 = AXIS2_PLACEMENT_3D ( 'NONE', #36, #56, #216 ) ;
#124 =( NAMED_UNIT ( * ) SI_UNIT ( $, .STERADIAN. ) SOLID_ANGLE_UNIT ( ) );
#125 = DIRECTION ( 'NONE',  ( 0.000000000000000000, 0.000000000000000000, 1.000000000000000000 ) ) ;
#126 = APPROVAL_STATUS ( 'not_yet_approved' ) ;
#127 = DATE_AND_TIME ( #22, #89 ) ;
#128 = FACE_OUTER_BOUND ( 'NONE', #76, .T. ) ;
#129 = PRODUCT ( '7261', '7261', '', ( #168 ) ) ;
#130 = DIRECTION ( 'NONE',  ( 1.000000000000000000, 0.000000000000000000, -0.000000000000000000 ) ) ;
#131 = APPROVAL_PERSON_ORGANIZATION ( #193, #12, #25 ) ;
#132 = COORDINATED_UNIVERSAL_TIME_OFFSET ( 1, 0, .AHEAD. ) ;
#133 = CYLINDRICAL_SURFACE ( 'NONE', #234, 7.000000000000000000 ) ;
#134 = APPROVAL_DATE_TIME ( #127, #164 ) ;
#135 = FACE_OUTER_BOUND ( 'NONE', #201, .T. ) ;
#136 = ORIENTED_EDGE ( 'NONE', *, *, #103, .F. ) ;
#137 = DIRECTION ( 'NONE',  ( 0.000000000000000000, 0.000000000000000000, 1.000000000000000000 ) ) ;
#138 = CIRCLE ( 'NONE', #200, 4.000000000000000000 ) ;
#139 = ORIENTED_EDGE ( 'NONE', *, *, #233, .T. ) ;
#140 = EDGE_CURVE ( 'NONE', #74, #10, #92, .T. ) ;
#141 = AXIS2_PLACEMENT_3D ( 'NONE', #204, #217, #41 ) ;
#142 = CARTESIAN_POINT ( 'NONE',  ( 0.000000000000000000, 0.000000000000000000, 6.500000000000000000 ) ) ;
#143 = LINE ( 'NONE', #208, #116 ) ;
#144 = DIRECTION ( 'NONE',  ( 1.000000000000000000, 0.000000000000000000, 0.000000000000000000 ) ) ;
#145 = VECTOR ( 'NONE', #73, 1000.000000000000000 ) ;
#146 = AXIS2_PLACEMENT_3D ( 'NONE', #142, #231, #46 ) ;
#147 = CALENDAR_DATE ( 2023, 13, 2 ) ;
#148 = DIRECTION ( 'NONE',  ( -0.000000000000000000, -0.000000000000000000, -1.000000000000000000 ) ) ;
#149 = PERSON_AND_ORGANIZATION ( #82, #45 ) ;
#150 = CARTESIAN_POINT ( 'NONE',  ( 0.000000000000000000, 0.000000000000000000, 0.000000000000000000 ) ) ;
#151 = CIRCLE ( 'NONE', #81, 4.000000000000000000 ) ;
#152 = ORIENTED_EDGE ( 'NONE', *, *, #229, .F. ) ;
#153 = ADVANCED_FACE ( 'NONE', ( #128 ), #174, .T. ) ;
#154 = DIRECTION ( 'NONE',  ( 1.000000000000000000, 0.000000000000000000, 0.000000000000000000 ) ) ;
#155 = DIRECTION ( 'NONE',  ( 0.000000000000000000, 0.000000000000000000, 1.000000000000000000 ) ) ;
#156 = APPROVAL_ROLE ( '' ) ;
#157 = CARTESIAN_POINT ( 'NONE',  ( 0.000000000000000000, 0.000000000000000000, 6.500000000000000000 ) ) ;
#158 = CARTESIAN_POINT ( 'NONE',  ( -7.000000000000000000, 0.000000000000000000, 6.500000000000000000 ) ) ;
#159 = DIRECTION ( 'NONE',  ( -0.000000000000000000, -0.000000000000000000, -1.000000000000000000 ) ) ;
#160 = ADVANCED_FACE ( 'NONE', ( #135 ), #71, .T. ) ;
#161 = PLANE ( 'NONE',  #64 ) ;
#162 = DIRECTION ( 'NONE',  ( 0.000000000000000000, 0.000000000000000000, 1.000000000000000000 ) ) ;
#163 = CARTESIAN_POINT ( 'NONE',  ( 0.000000000000000000, 0.000000000000000000, 0.000000000000000000 ) ) ;
#164 = APPROVAL ( #20, 'NEURÈENÝ' ) ;
#165 = CARTESIAN_POINT ( 'NONE',  ( -4.000000000000000000, 0.000000000000000000, 1200.000000000000000 ) ) ;
#166 = APPLICATION_CONTEXT ( 'configuration controlled 3d designs of mechanical parts and assemblies' ) ;
#167 = LOCAL_TIME ( 15, 17, 58.00000000000000000, #132 ) ;
#168 = MECHANICAL_CONTEXT ( 'NONE', #166, 'mechanical' ) ;
#169 = ADVANCED_BREP_SHAPE_REPRESENTATION ( '7261', ( #83, #17 ), #40 ) ;
#170 = LOCAL_TIME ( 15, 17, 58.00000000000000000, #37 ) ;
#171 = FACE_OUTER_BOUND ( 'NONE', #182, .T. ) ;
#172 = ORIENTED_EDGE ( 'NONE', *, *, #203, .T. ) ;
#173 = CALENDAR_DATE ( 2023, 13, 2 ) ;
#174 = PLANE ( 'NONE',  #123 ) ;
#175 = ORIENTED_EDGE ( 'NONE', *, *, #103, .T. ) ;
#176 = DATE_AND_TIME ( #220, #167 ) ;
#177 = CARTESIAN_POINT ( 'NONE',  ( 4.000000000000000000, 4.898587196589412829E-16, 1200.000000000000000 ) ) ;
#178 = ORIENTED_EDGE ( 'NONE', *, *, #242, .T. ) ;
#179 = PERSON_AND_ORGANIZATION_ROLE ( 'design_supplier' ) ;
#180 = ORIENTED_EDGE ( 'NONE', *, *, #95, .F. ) ;
#181 = DIRECTION ( 'NONE',  ( -1.000000000000000000, 0.000000000000000000, 0.000000000000000000 ) ) ;
#182 = EDGE_LOOP ( 'NONE', ( #91, #11, #247, #240 ) ) ;
#183 = DESIGN_CONTEXT ( 'detailed design', #254, 'design' ) ;
#184 = CIRCLE ( 'NONE', #146, 7.000000000000000000 ) ;
#185 = EDGE_CURVE ( 'NONE', #57, #59, #106, .T. ) ;
#186 = DIRECTION ( 'NONE',  ( -1.000000000000000000, 0.000000000000000000, 0.000000000000000000 ) ) ;
#187 = ADVANCED_FACE ( 'NONE', ( #85 ), #39, .F. ) ;
#188 = PRODUCT_RELATED_PRODUCT_CATEGORY ( 'detail', '', ( #129 ) ) ;
#189 = PERSON_AND_ORGANIZATION_ROLE ( 'creator' ) ;
#190 = AXIS2_PLACEMENT_3D ( 'NONE', #34, #26, #223 ) ;
#191 = CARTESIAN_POINT ( 'NONE',  ( 7.000000000000000000, 8.572527594031471218E-16, 6.500000000000000000 ) ) ;
#192 = DIRECTION ( 'NONE',  ( 1.000000000000000000, 0.000000000000000000, 0.000000000000000000 ) ) ;
#193 = PERSON_AND_ORGANIZATION ( #82, #45 ) ;
#194 = CC_DESIGN_PERSON_AND_ORGANIZATION_ASSIGNMENT ( #1, #179, ( #214 ) ) ;
#195 = DIRECTION ( 'NONE',  ( 0.000000000000000000, 0.000000000000000000, 1.000000000000000000 ) ) ;
#196 = ORIENTED_EDGE ( 'NONE', *, *, #53, .F. ) ;
#197 = SECURITY_CLASSIFICATION_LEVEL ( 'unclassified' ) ;
#198 = DIRECTION ( 'NONE',  ( 1.000000000000000000, 0.000000000000000000, -0.000000000000000000 ) ) ;
#199 = FACE_OUTER_BOUND ( 'NONE', #78, .T. ) ;
#200 = AXIS2_PLACEMENT_3D ( 'NONE', #4, #114, #154 ) ;
#201 = EDGE_LOOP ( 'NONE', ( #8, #61, #139, #226 ) ) ;
#202 = VECTOR ( 'NONE', #248, 1000.000000000000000 ) ;
#203 = EDGE_CURVE ( 'NONE', #115, #74, #138, .T. ) ;
#204 = CARTESIAN_POINT ( 'NONE',  ( 0.000000000000000000, 0.000000000000000000, 1200.000000000000000 ) ) ;
#205 = ORIENTED_EDGE ( 'NONE', *, *, #140, .T. ) ;
#206 = ADVANCED_FACE ( 'NONE', ( #199 ), #63, .T. ) ;
#207 = LINE ( 'NONE', #165, #202 ) ;
#208 = CARTESIAN_POINT ( 'NONE',  ( -7.000000000000000000, 0.000000000000000000, 6.500000000000000000 ) ) ;
#209 = EDGE_CURVE ( 'NONE', #27, #219, #143, .T. ) ;
#210 = PERSON_AND_ORGANIZATION_ROLE ( 'design_owner' ) ;
#211 = COORDINATED_UNIVERSAL_TIME_OFFSET ( 1, 0, .AHEAD. ) ;
#212 = CIRCLE ( 'NONE', #58, 4.000000000000000000 ) ;
#213 = CC_DESIGN_PERSON_AND_ORGANIZATION_ASSIGNMENT ( #77, #7, ( #50 ) ) ;
#214 = PRODUCT_DEFINITION_FORMATION_WITH_SPECIFIED_SOURCE ( 'LIBOVOLNÝ', '', #129, .NOT_KNOWN. ) ;
#215 = SHAPE_DEFINITION_REPRESENTATION ( #67, #169 ) ;
#216 = DIRECTION ( 'NONE',  ( 1.000000000000000000, 0.000000000000000000, -0.000000000000000000 ) ) ;
#217 = DIRECTION ( 'NONE',  ( 0.000000000000000000, 0.000000000000000000, 1.000000000000000000 ) ) ;
#218 = LOCAL_TIME ( 15, 17, 58.00000000000000000, #211 ) ;
#219 = VERTEX_POINT ( 'NONE', #60 ) ;
#220 = CALENDAR_DATE ( 2023, 13, 2 ) ;
#221 = CARTESIAN_POINT ( 'NONE',  ( 0.000000000000000000, 0.000000000000000000, 6.500000000000000000 ) ) ;
#222 = DIRECTION ( 'NONE',  ( -1.000000000000000000, 0.000000000000000000, 0.000000000000000000 ) ) ;
#223 = DIRECTION ( 'NONE',  ( -1.000000000000000000, 0.000000000000000000, 0.000000000000000000 ) ) ;
#224 = ORIENTED_EDGE ( 'NONE', *, *, #65, .T. ) ;
#225 = DIRECTION ( 'NONE',  ( 1.000000000000000000, 0.000000000000000000, 0.000000000000000000 ) ) ;
#226 = ORIENTED_EDGE ( 'NONE', *, *, #44, .T. ) ;
#227 = CARTESIAN_POINT ( 'NONE',  ( 0.000000000000000000, 0.000000000000000000, 6.500000000000000000 ) ) ;
#228 = DIRECTION ( 'NONE',  ( 1.000000000000000000, 0.000000000000000000, 0.000000000000000000 ) ) ;
#229 = EDGE_CURVE ( 'NONE', #59, #219, #13, .T. ) ;
#230 = CARTESIAN_POINT ( 'NONE',  ( 0.000000000000000000, 0.000000000000000000, 1200.000000000000000 ) ) ;
#231 = DIRECTION ( 'NONE',  ( 0.000000000000000000, 0.000000000000000000, 1.000000000000000000 ) ) ;
#232 = CARTESIAN_POINT ( 'NONE',  ( 7.000000000000000000, 8.572527594031471218E-16, 6.500000000000000000 ) ) ;
#233 = EDGE_CURVE ( 'NONE', #115, #52, #207, .T. ) ;
#234 = AXIS2_PLACEMENT_3D ( 'NONE', #221, #246, #181 ) ;
#235 = PERSON_AND_ORGANIZATION ( #82, #45 ) ;
#236 = PERSON_AND_ORGANIZATION ( #82, #45 ) ;
#237 = DIRECTION ( 'NONE',  ( 1.000000000000000000, 0.000000000000000000, 0.000000000000000000 ) ) ;
#238 = CIRCLE ( 'NONE', #94, 7.000000000000000000 ) ;
#239 = CARTESIAN_POINT ( 'NONE',  ( 4.000000000000000000, 4.898587196589412829E-16, 1200.000000000000000 ) ) ;
#240 = ORIENTED_EDGE ( 'NONE', *, *, #209, .F. ) ;
#241 = PERSON_AND_ORGANIZATION_ROLE ( 'creator' ) ;
#242 = EDGE_CURVE ( 'NONE', #57, #27, #184, .T. ) ;
#243 = COORDINATED_UNIVERSAL_TIME_OFFSET ( 1, 0, .AHEAD. ) ;
#244 = CARTESIAN_POINT ( 'NONE',  ( 0.000000000000000000, 0.000000000000000000, 6.500000000000000000 ) ) ;
#245 = CYLINDRICAL_SURFACE ( 'NONE', #16, 7.000000000000000000 ) ;
#246 = DIRECTION ( 'NONE',  ( -0.000000000000000000, -0.000000000000000000, -1.000000000000000000 ) ) ;
#247 = ORIENTED_EDGE ( 'NONE', *, *, #229, .T. ) ;
#248 = DIRECTION ( 'NONE',  ( -0.000000000000000000, -0.000000000000000000, -1.000000000000000000 ) ) ;
#249 = FACE_OUTER_BOUND ( 'NONE', #23, .T. ) ;
#250 = DIRECTION ( 'NONE',  ( 0.000000000000000000, 0.000000000000000000, 1.000000000000000000 ) ) ;
#251 = CC_DESIGN_SECURITY_CLASSIFICATION ( #50, ( #214 ) ) ;
#252 = PERSON_AND_ORGANIZATION ( #82, #45 ) ;
#253 = CC_DESIGN_APPROVAL ( #164, ( #50 ) ) ;
#254 = APPLICATION_CONTEXT ( 'configuration controlled 3d designs of mechanical parts and assemblies' ) ;
#255 = AXIS2_PLACEMENT_3D ( 'NONE', #244, #137, #225 ) ;
ENDSEC;
END-ISO-10303-21;
