ISO-10303-21;
HEADER;
FILE_DESCRIPTION (( 'STEP AP203' ),
    '1' );
FILE_NAME ('6107.STEP',
    '2023-02-13T16:18:32',
    ( '' ),
    ( '' ),
    'SwSTEP 2.0',
    'SolidWorks 2019',
    '' );
FILE_SCHEMA (( 'CONFIG_CONTROL_DESIGN' ));
ENDSEC;

DATA;
#1 = LOCAL_TIME ( 17, 18, 32.00000000000000000, #97 ) ;
#2 = ORIENTED_EDGE ( 'NONE', *, *, #81, .T. ) ;
#3 = AXIS2_PLACEMENT_3D ( 'NONE', #31, #246, #85 ) ;
#4 = EDGE_CURVE ( 'NONE', #43, #64, #32, .T. ) ;
#5 = EDGE_LOOP ( 'NONE', ( #174, #122 ) ) ;
#6 = CARTESIAN_POINT ( 'NONE',  ( 0.000000000000000000, 0.000000000000000000, 5.000000000000000000 ) ) ;
#7 = CARTESIAN_POINT ( 'NONE',  ( 0.000000000000000000, 0.000000000000000000, 125.0000000000000000 ) ) ;
#8 = CIRCLE ( 'NONE', #3, 5.000000000000000000 ) ;
#9 = CARTESIAN_POINT ( 'NONE',  ( 2.500000000000000000, 3.061616997868383141E-16, 125.0000000000000000 ) ) ;
#10 = DIRECTION ( 'NONE',  ( 1.000000000000000000, 0.000000000000000000, -0.000000000000000000 ) ) ;
#11 = EDGE_CURVE ( 'NONE', #64, #43, #130, .T. ) ;
#12 = LINE ( 'NONE', #29, #222 ) ;
#13 = AXIS2_PLACEMENT_3D ( 'NONE', #138, #118, #192 ) ;
#14 = COORDINATED_UNIVERSAL_TIME_OFFSET ( 1, 0, .AHEAD. ) ;
#15 = APPROVAL_ROLE ( '' ) ;
#16 = APPROVAL_ROLE ( '' ) ;
#17 = PERSON_AND_ORGANIZATION_ROLE ( 'creator' ) ;
#18 = CC_DESIGN_PERSON_AND_ORGANIZATION_ASSIGNMENT ( #249, #17, ( #251 ) ) ;
#19 = EDGE_LOOP ( 'NONE', ( #159, #100, #65, #79 ) ) ;
#20 = CARTESIAN_POINT ( 'NONE',  ( 0.000000000000000000, 0.000000000000000000, 0.000000000000000000 ) ) ;
#21 = ORIENTED_EDGE ( 'NONE', *, *, #215, .F. ) ;
#22 = APPROVAL_DATE_TIME ( #197, #141 ) ;
#23 = DIRECTION ( 'NONE',  ( 1.000000000000000000, 0.000000000000000000, 0.000000000000000000 ) ) ;
#24 = APPROVAL_PERSON_ORGANIZATION ( #54, #230, #113 ) ;
#25 = DIRECTION ( 'NONE',  ( -0.000000000000000000, -0.000000000000000000, -1.000000000000000000 ) ) ;
#26 = CARTESIAN_POINT ( 'NONE',  ( 0.000000000000000000, 0.000000000000000000, 5.000000000000000000 ) ) ;
#27 = DESIGN_CONTEXT ( 'detailed design', #133, 'design' ) ;
#28 = DIRECTION ( 'NONE',  ( -1.000000000000000000, 0.000000000000000000, 0.000000000000000000 ) ) ;
#29 = CARTESIAN_POINT ( 'NONE',  ( -5.000000000000000000, 0.000000000000000000, 5.000000000000000000 ) ) ;
#30 = ADVANCED_FACE ( 'NONE', ( #161 ), #38, .T. ) ;
#31 = CARTESIAN_POINT ( 'NONE',  ( 0.000000000000000000, 0.000000000000000000, 5.000000000000000000 ) ) ;
#32 = CIRCLE ( 'NONE', #180, 2.500000000000000000 ) ;
#33 =( NAMED_UNIT ( * ) PLANE_ANGLE_UNIT ( ) SI_UNIT ( $, .RADIAN. ) );
#34 = CARTESIAN_POINT ( 'NONE',  ( 5.000000000000000000, 6.123233995736766282E-16, 5.000000000000000000 ) ) ;
#35 = PERSON_AND_ORGANIZATION_ROLE ( 'creator' ) ;
#36 = AXIS2_PLACEMENT_3D ( 'NONE', #7, #165, #71 ) ;
#37 = ADVANCED_BREP_SHAPE_REPRESENTATION ( '6107', ( #140, #213 ), #155 ) ;
#38 = CYLINDRICAL_SURFACE ( 'NONE', #13, 5.000000000000000000 ) ;
#39 = CC_DESIGN_DATE_AND_TIME_ASSIGNMENT ( #231, #51, ( #112 ) ) ;
#40 = DIRECTION ( 'NONE',  ( 1.000000000000000000, 0.000000000000000000, 0.000000000000000000 ) ) ;
#41 = EDGE_CURVE ( 'NONE', #83, #144, #67, .T. ) ;
#42 = VERTEX_POINT ( 'NONE', #61 ) ;
#43 = VERTEX_POINT ( 'NONE', #108 ) ;
#44 = PRODUCT_RELATED_PRODUCT_CATEGORY ( 'detail', '', ( #47 ) ) ;
#45 = CARTESIAN_POINT ( 'NONE',  ( 0.000000000000000000, 0.000000000000000000, 125.0000000000000000 ) ) ;
#46 = CARTESIAN_POINT ( 'NONE',  ( -5.000000000000000000, 0.000000000000000000, 5.000000000000000000 ) ) ;
#47 = PRODUCT ( '6107', '6107', '', ( #232 ) ) ;
#48 = PLANE ( 'NONE',  #115 ) ;
#49 = CARTESIAN_POINT ( 'NONE',  ( 2.500000000000000000, 3.061616997868383141E-16, 5.000000000000000000 ) ) ;
#50 = DATE_TIME_ROLE ( 'creation_date' ) ;
#51 = DATE_TIME_ROLE ( 'classification_date' ) ;
#52 = LOCAL_TIME ( 17, 18, 32.00000000000000000, #111 ) ;
#53 = APPLICATION_PROTOCOL_DEFINITION ( 'international standard', 'config_control_design', 1994, #133 ) ;
#54 = PERSON_AND_ORGANIZATION ( #221, #176 ) ;
#55 = APPROVAL_DATE_TIME ( #154, #230 ) ;
#56 = ADVANCED_FACE ( 'NONE', ( #181 ), #244, .T. ) ;
#57 = APPROVAL_PERSON_ORGANIZATION ( #235, #200, #16 ) ;
#58 = LOCAL_TIME ( 17, 18, 32.00000000000000000, #95 ) ;
#59 = AXIS2_PLACEMENT_3D ( 'NONE', #20, #238, #40 ) ;
#60 = DIRECTION ( 'NONE',  ( 1.000000000000000000, 0.000000000000000000, 0.000000000000000000 ) ) ;
#61 = CARTESIAN_POINT ( 'NONE',  ( -2.500000000000000000, 0.000000000000000000, 5.000000000000000000 ) ) ;
#62 = EDGE_LOOP ( 'NONE', ( #239, #143 ) ) ;
#63 = APPLICATION_CONTEXT ( 'configuration controlled 3d designs of mechanical parts and assemblies' ) ;
#64 = VERTEX_POINT ( 'NONE', #9 ) ;
#65 = ORIENTED_EDGE ( 'NONE', *, *, #206, .T. ) ;
#66 = DIRECTION ( 'NONE',  ( -0.000000000000000000, -0.000000000000000000, -1.000000000000000000 ) ) ;
#67 = CIRCLE ( 'NONE', #59, 5.000000000000000000 ) ;
#68 = DIRECTION ( 'NONE',  ( 1.000000000000000000, 0.000000000000000000, -0.000000000000000000 ) ) ;
#69 = FACE_BOUND ( 'NONE', #62, .T. ) ;
#70 = DIRECTION ( 'NONE',  ( 0.000000000000000000, 0.000000000000000000, 1.000000000000000000 ) ) ;
#71 = DIRECTION ( 'NONE',  ( -1.000000000000000000, 0.000000000000000000, 0.000000000000000000 ) ) ;
#72 = PERSON_AND_ORGANIZATION ( #221, #176 ) ;
#73 = CALENDAR_DATE ( 2023, 13, 2 ) ;
#74 = AXIS2_PLACEMENT_3D ( 'NONE', #201, #205, #106 ) ;
#75 = COORDINATED_UNIVERSAL_TIME_OFFSET ( 1, 0, .AHEAD. ) ;
#76 = DIRECTION ( 'NONE',  ( 1.000000000000000000, 0.000000000000000000, 0.000000000000000000 ) ) ;
#77 = EDGE_CURVE ( 'NONE', #42, #175, #193, .T. ) ;
#78 = SECURITY_CLASSIFICATION_LEVEL ( 'unclassified' ) ;
#79 = ORIENTED_EDGE ( 'NONE', *, *, #156, .T. ) ;
#80 = ORIENTED_EDGE ( 'NONE', *, *, #121, .T. ) ;
#81 = EDGE_CURVE ( 'NONE', #243, #83, #202, .T. ) ;
#82 = AXIS2_PLACEMENT_3D ( 'NONE', #167, #125, #109 ) ;
#83 = VERTEX_POINT ( 'NONE', #88 ) ;
#84 = ORIENTED_EDGE ( 'NONE', *, *, #89, .T. ) ;
#85 = DIRECTION ( 'NONE',  ( 1.000000000000000000, 0.000000000000000000, 0.000000000000000000 ) ) ;
#86 = CARTESIAN_POINT ( 'NONE',  ( 5.000000000000000000, 6.123233995736766282E-16, 5.000000000000000000 ) ) ;
#87 = VECTOR ( 'NONE', #25, 1000.000000000000000 ) ;
#88 = CARTESIAN_POINT ( 'NONE',  ( 5.000000000000000000, 6.123233995736766282E-16, 0.000000000000000000 ) ) ;
#89 = EDGE_CURVE ( 'NONE', #160, #243, #227, .T. ) ;
#90 = LINE ( 'NONE', #149, #199 ) ;
#91 = DIRECTION ( 'NONE',  ( 1.000000000000000000, 0.000000000000000000, 0.000000000000000000 ) ) ;
#92 = LOCAL_TIME ( 17, 18, 32.00000000000000000, #75 ) ;
#93 = PERSON_AND_ORGANIZATION ( #221, #176 ) ;
#94 = CC_DESIGN_PERSON_AND_ORGANIZATION_ASSIGNMENT ( #93, #117, ( #236 ) ) ;
#95 = COORDINATED_UNIVERSAL_TIME_OFFSET ( 1, 0, .AHEAD. ) ;
#96 =( LENGTH_UNIT ( ) NAMED_UNIT ( * ) SI_UNIT ( .MILLI., .METRE. ) );
#97 = COORDINATED_UNIVERSAL_TIME_OFFSET ( 1, 0, .AHEAD. ) ;
#98 =( NAMED_UNIT ( * ) SI_UNIT ( $, .STERADIAN. ) SOLID_ANGLE_UNIT ( ) );
#99 = AXIS2_PLACEMENT_3D ( 'NONE', #145, #70, #10 ) ;
#100 = ORIENTED_EDGE ( 'NONE', *, *, #89, .F. ) ;
#101 = DIRECTION ( 'NONE',  ( 0.000000000000000000, 0.000000000000000000, 1.000000000000000000 ) ) ;
#102 = EDGE_LOOP ( 'NONE', ( #84, #80 ) ) ;
#103 = LOCAL_TIME ( 17, 18, 32.00000000000000000, #14 ) ;
#104 = EDGE_CURVE ( 'NONE', #175, #42, #116, .T. ) ;
#105 = ORIENTED_EDGE ( 'NONE', *, *, #4, .T. ) ;
#106 = DIRECTION ( 'NONE',  ( 1.000000000000000000, 0.000000000000000000, 0.000000000000000000 ) ) ;
#107 = CARTESIAN_POINT ( 'NONE',  ( -5.000000000000000000, 0.000000000000000000, 0.000000000000000000 ) ) ;
#108 = CARTESIAN_POINT ( 'NONE',  ( -2.500000000000000000, 0.000000000000000000, 125.0000000000000000 ) ) ;
#109 = DIRECTION ( 'NONE',  ( 1.000000000000000000, 0.000000000000000000, 0.000000000000000000 ) ) ;
#110 = FACE_OUTER_BOUND ( 'NONE', #19, .T. ) ;
#111 = COORDINATED_UNIVERSAL_TIME_OFFSET ( 1, 0, .AHEAD. ) ;
#112 = SECURITY_CLASSIFICATION ( '', '', #78 ) ;
#113 = APPROVAL_ROLE ( '' ) ;
#114 = AXIS2_PLACEMENT_3D ( 'NONE', #45, #203, #28 ) ;
#115 = AXIS2_PLACEMENT_3D ( 'NONE', #129, #228, #163 ) ;
#116 = CIRCLE ( 'NONE', #119, 2.500000000000000000 ) ;
#117 = PERSON_AND_ORGANIZATION_ROLE ( 'design_supplier' ) ;
#118 = DIRECTION ( 'NONE',  ( -0.000000000000000000, -0.000000000000000000, -1.000000000000000000 ) ) ;
#119 = AXIS2_PLACEMENT_3D ( 'NONE', #150, #164, #131 ) ;
#120 = ORIENTED_EDGE ( 'NONE', *, *, #4, .F. ) ;
#121 = EDGE_CURVE ( 'NONE', #243, #160, #8, .T. ) ;
#122 = ORIENTED_EDGE ( 'NONE', *, *, #41, .F. ) ;
#123 = FACE_OUTER_BOUND ( 'NONE', #237, .T. ) ;
#124 = CC_DESIGN_PERSON_AND_ORGANIZATION_ASSIGNMENT ( #214, #35, ( #236 ) ) ;
#125 = DIRECTION ( 'NONE',  ( 0.000000000000000000, 0.000000000000000000, 1.000000000000000000 ) ) ;
#126 = FACE_OUTER_BOUND ( 'NONE', #5, .T. ) ;
#127 = ADVANCED_FACE ( 'NONE', ( #110 ), #224, .T. ) ;
#128 = CC_DESIGN_APPROVAL ( #141, ( #112 ) ) ;
#129 = CARTESIAN_POINT ( 'NONE',  ( 0.000000000000000000, 0.000000000000000000, 0.000000000000000000 ) ) ;
#130 = CIRCLE ( 'NONE', #209, 2.500000000000000000 ) ;
#131 = DIRECTION ( 'NONE',  ( 1.000000000000000000, 0.000000000000000000, 0.000000000000000000 ) ) ;
#132 = PERSON_AND_ORGANIZATION ( #221, #176 ) ;
#133 = APPLICATION_CONTEXT ( 'configuration controlled 3d designs of mechanical parts and assemblies' ) ;
#134 = APPROVAL_STATUS ( 'not_yet_approved' ) ;
#135 = EDGE_CURVE ( 'NONE', #64, #175, #247, .T. ) ;
#136 = AXIS2_PLACEMENT_3D ( 'NONE', #26, #66, #162 ) ;
#137 = DIRECTION ( 'NONE',  ( 0.000000000000000000, 0.000000000000000000, 1.000000000000000000 ) ) ;
#138 = CARTESIAN_POINT ( 'NONE',  ( 0.000000000000000000, 0.000000000000000000, 5.000000000000000000 ) ) ;
#139 = AXIS2_PLACEMENT_3D ( 'NONE', #6, #179, #68 ) ;
#140 = MANIFOLD_SOLID_BREP ( 'Pøidat vysunutím3', #240 ) ;
#141 = APPROVAL ( #208, 'NEURÈENÝ' ) ;
#142 = ORIENTED_EDGE ( 'NONE', *, *, #11, .F. ) ;
#143 = ORIENTED_EDGE ( 'NONE', *, *, #104, .F. ) ;
#144 = VERTEX_POINT ( 'NONE', #107 ) ;
#145 = CARTESIAN_POINT ( 'NONE',  ( 0.000000000000000000, 0.000000000000000000, 125.0000000000000000 ) ) ;
#146 = DIRECTION ( 'NONE',  ( -0.000000000000000000, -0.000000000000000000, -1.000000000000000000 ) ) ;
#147 = CARTESIAN_POINT ( 'NONE',  ( 0.000000000000000000, 0.000000000000000000, 5.000000000000000000 ) ) ;
#148 = CC_DESIGN_SECURITY_CLASSIFICATION ( #112, ( #236 ) ) ;
#149 = CARTESIAN_POINT ( 'NONE',  ( -2.500000000000000000, 0.000000000000000000, 125.0000000000000000 ) ) ;
#150 = CARTESIAN_POINT ( 'NONE',  ( 0.000000000000000000, 0.000000000000000000, 5.000000000000000000 ) ) ;
#151 = CALENDAR_DATE ( 2023, 13, 2 ) ;
#152 = VECTOR ( 'NONE', #229, 1000.000000000000000 ) ;
#153 = CALENDAR_DATE ( 2023, 13, 2 ) ;
#154 = DATE_AND_TIME ( #170, #1 ) ;
#155 =( GEOMETRIC_REPRESENTATION_CONTEXT ( 3 ) GLOBAL_UNCERTAINTY_ASSIGNED_CONTEXT ( ( #253 ) ) GLOBAL_UNIT_ASSIGNED_CONTEXT ( ( #96, #33, #98 ) ) REPRESENTATION_CONTEXT ( 'NONE', 'WORKASPACE' ) );
#156 = EDGE_CURVE ( 'NONE', #144, #83, #226, .T. ) ;
#157 = ORIENTED_EDGE ( 'NONE', *, *, #135, .F. ) ;
#158 = ORIENTED_EDGE ( 'NONE', *, *, #215, .T. ) ;
#159 = ORIENTED_EDGE ( 'NONE', *, *, #81, .F. ) ;
#160 = VERTEX_POINT ( 'NONE', #46 ) ;
#161 = FACE_OUTER_BOUND ( 'NONE', #242, .T. ) ;
#162 = DIRECTION ( 'NONE',  ( -1.000000000000000000, 0.000000000000000000, 0.000000000000000000 ) ) ;
#163 = DIRECTION ( 'NONE',  ( 1.000000000000000000, 0.000000000000000000, -0.000000000000000000 ) ) ;
#164 = DIRECTION ( 'NONE',  ( 0.000000000000000000, 0.000000000000000000, 1.000000000000000000 ) ) ;
#165 = DIRECTION ( 'NONE',  ( -0.000000000000000000, -0.000000000000000000, -1.000000000000000000 ) ) ;
#166 = CC_DESIGN_APPROVAL ( #230, ( #236 ) ) ;
#167 = CARTESIAN_POINT ( 'NONE',  ( 0.000000000000000000, 0.000000000000000000, 0.000000000000000000 ) ) ;
#168 = PERSON_AND_ORGANIZATION ( #221, #176 ) ;
#169 = DIRECTION ( 'NONE',  ( 0.000000000000000000, 0.000000000000000000, 1.000000000000000000 ) ) ;
#170 = CALENDAR_DATE ( 2023, 13, 2 ) ;
#171 = CC_DESIGN_PERSON_AND_ORGANIZATION_ASSIGNMENT ( #168, #188, ( #47 ) ) ;
#172 = CC_DESIGN_APPROVAL ( #200, ( #251 ) ) ;
#173 = ORIENTED_EDGE ( 'NONE', *, *, #104, .T. ) ;
#174 = ORIENTED_EDGE ( 'NONE', *, *, #156, .F. ) ;
#175 = VERTEX_POINT ( 'NONE', #49 ) ;
#176 = ORGANIZATION ( 'NEURÈENÝ', 'NEURÈENÝ', '' ) ;
#177 = ORIENTED_EDGE ( 'NONE', *, *, #206, .F. ) ;
#178 = CARTESIAN_POINT ( 'NONE',  ( 2.500000000000000000, 3.061616997868383141E-16, 125.0000000000000000 ) ) ;
#179 = DIRECTION ( 'NONE',  ( 0.000000000000000000, 0.000000000000000000, 1.000000000000000000 ) ) ;
#180 = AXIS2_PLACEMENT_3D ( 'NONE', #191, #137, #60 ) ;
#181 = FACE_OUTER_BOUND ( 'NONE', #254, .T. ) ;
#182 = CC_DESIGN_DATE_AND_TIME_ASSIGNMENT ( #210, #50, ( #251 ) ) ;
#183 = PLANE ( 'NONE',  #99 ) ;
#184 = ADVANCED_FACE ( 'NONE', ( #69, #225 ), #185, .T. ) ;
#185 = PLANE ( 'NONE',  #139 ) ;
#186 = APPROVAL_DATE_TIME ( #187, #200 ) ;
#187 = DATE_AND_TIME ( #153, #92 ) ;
#188 = PERSON_AND_ORGANIZATION_ROLE ( 'design_owner' ) ;
#189 = AXIS2_PLACEMENT_3D ( 'NONE', #147, #204, #91 ) ;
#190 = ADVANCED_FACE ( 'NONE', ( #126 ), #48, .F. ) ;
#191 = CARTESIAN_POINT ( 'NONE',  ( 0.000000000000000000, 0.000000000000000000, 125.0000000000000000 ) ) ;
#192 = DIRECTION ( 'NONE',  ( -1.000000000000000000, 0.000000000000000000, 0.000000000000000000 ) ) ;
#193 = CIRCLE ( 'NONE', #189, 2.500000000000000000 ) ;
#194 = ORIENTED_EDGE ( 'NONE', *, *, #77, .T. ) ;
#195 = EDGE_LOOP ( 'NONE', ( #105, #218 ) ) ;
#196 = PRODUCT_DEFINITION_SHAPE ( 'NONE', 'NONE',  #251 ) ;
#197 = DATE_AND_TIME ( #73, #58 ) ;
#198 = CARTESIAN_POINT ( 'NONE',  ( 0.000000000000000000, 0.000000000000000000, 125.0000000000000000 ) ) ;
#199 = VECTOR ( 'NONE', #248, 1000.000000000000000 ) ;
#200 = APPROVAL ( #252, 'NEURÈENÝ' ) ;
#201 = CARTESIAN_POINT ( 'NONE',  ( 0.000000000000000000, 0.000000000000000000, 5.000000000000000000 ) ) ;
#202 = LINE ( 'NONE', #86, #87 ) ;
#203 = DIRECTION ( 'NONE',  ( -0.000000000000000000, -0.000000000000000000, -1.000000000000000000 ) ) ;
#204 = DIRECTION ( 'NONE',  ( 0.000000000000000000, 0.000000000000000000, 1.000000000000000000 ) ) ;
#205 = DIRECTION ( 'NONE',  ( 0.000000000000000000, 0.000000000000000000, 1.000000000000000000 ) ) ;
#206 = EDGE_CURVE ( 'NONE', #160, #144, #12, .T. ) ;
#207 = APPLICATION_PROTOCOL_DEFINITION ( 'international standard', 'config_control_design', 1994, #63 ) ;
#208 = APPROVAL_STATUS ( 'not_yet_approved' ) ;
#209 = AXIS2_PLACEMENT_3D ( 'NONE', #198, #101, #23 ) ;
#210 = DATE_AND_TIME ( #234, #103 ) ;
#211 = CARTESIAN_POINT ( 'NONE',  ( 0.000000000000000000, 0.000000000000000000, 0.000000000000000000 ) ) ;
#212 = ADVANCED_FACE ( 'NONE', ( #245 ), #183, .T. ) ;
#213 = AXIS2_PLACEMENT_3D ( 'NONE', #211, #169, #76 ) ;
#214 = PERSON_AND_ORGANIZATION ( #221, #176 ) ;
#215 = EDGE_CURVE ( 'NONE', #43, #42, #90, .T. ) ;
#216 = SHAPE_DEFINITION_REPRESENTATION ( #196, #37 ) ;
#217 = ORIENTED_EDGE ( 'NONE', *, *, #121, .F. ) ;
#218 = ORIENTED_EDGE ( 'NONE', *, *, #11, .T. ) ;
#219 = ORIENTED_EDGE ( 'NONE', *, *, #41, .T. ) ;
#220 = APPROVAL_PERSON_ORGANIZATION ( #132, #141, #15 ) ;
#221 = PERSON ( 'NEURÈENÝ', 'NEURÈENÝ', 'NEURÈENÝ', ('NEURÈENÝ'), ('NEURÈENÝ'), ('NEURÈENÝ') ) ;
#222 = VECTOR ( 'NONE', #146, 1000.000000000000000 ) ;
#223 = CYLINDRICAL_SURFACE ( 'NONE', #114, 2.500000000000000000 ) ;
#224 = CYLINDRICAL_SURFACE ( 'NONE', #136, 5.000000000000000000 ) ;
#225 = FACE_OUTER_BOUND ( 'NONE', #102, .T. ) ;
#226 = CIRCLE ( 'NONE', #82, 5.000000000000000000 ) ;
#227 = CIRCLE ( 'NONE', #74, 5.000000000000000000 ) ;
#228 = DIRECTION ( 'NONE',  ( 0.000000000000000000, 0.000000000000000000, 1.000000000000000000 ) ) ;
#229 = DIRECTION ( 'NONE',  ( -0.000000000000000000, -0.000000000000000000, -1.000000000000000000 ) ) ;
#230 = APPROVAL ( #134, 'NEURÈENÝ' ) ;
#231 = DATE_AND_TIME ( #151, #52 ) ;
#232 = MECHANICAL_CONTEXT ( 'NONE', #63, 'mechanical' ) ;
#233 = ADVANCED_FACE ( 'NONE', ( #123 ), #223, .T. ) ;
#234 = CALENDAR_DATE ( 2023, 13, 2 ) ;
#235 = PERSON_AND_ORGANIZATION ( #221, #176 ) ;
#236 = PRODUCT_DEFINITION_FORMATION_WITH_SPECIFIED_SOURCE ( 'LIBOVOLNÝ', '', #47, .NOT_KNOWN. ) ;
#237 = EDGE_LOOP ( 'NONE', ( #142, #255, #173, #21 ) ) ;
#238 = DIRECTION ( 'NONE',  ( 0.000000000000000000, 0.000000000000000000, 1.000000000000000000 ) ) ;
#239 = ORIENTED_EDGE ( 'NONE', *, *, #77, .F. ) ;
#240 = CLOSED_SHELL ( 'NONE', ( #233, #30, #127, #184, #190, #56, #212 ) ) ;
#241 = CC_DESIGN_PERSON_AND_ORGANIZATION_ASSIGNMENT ( #72, #250, ( #112 ) ) ;
#242 = EDGE_LOOP ( 'NONE', ( #217, #2, #219, #177 ) ) ;
#243 = VERTEX_POINT ( 'NONE', #34 ) ;
#244 = CYLINDRICAL_SURFACE ( 'NONE', #36, 2.500000000000000000 ) ;
#245 = FACE_OUTER_BOUND ( 'NONE', #195, .T. ) ;
#246 = DIRECTION ( 'NONE',  ( 0.000000000000000000, 0.000000000000000000, 1.000000000000000000 ) ) ;
#247 = LINE ( 'NONE', #178, #152 ) ;
#248 = DIRECTION ( 'NONE',  ( -0.000000000000000000, -0.000000000000000000, -1.000000000000000000 ) ) ;
#249 = PERSON_AND_ORGANIZATION ( #221, #176 ) ;
#250 = PERSON_AND_ORGANIZATION_ROLE ( 'classification_officer' ) ;
#251 = PRODUCT_DEFINITION ( 'NEZNÁMÝ', '', #236, #27 ) ;
#252 = APPROVAL_STATUS ( 'not_yet_approved' ) ;
#253 = UNCERTAINTY_MEASURE_WITH_UNIT (LENGTH_MEASURE( 1.000000000000000082E-05 ), #96, 'distance_accuracy_value', 'NONE');
#254 = EDGE_LOOP ( 'NONE', ( #157, #120, #158, #194 ) ) ;
#255 = ORIENTED_EDGE ( 'NONE', *, *, #135, .T. ) ;
ENDSEC;
END-ISO-10303-21;
