ISO-10303-21;
HEADER;
FILE_DESCRIPTION (( 'STEP AP203' ),
    '1' );
FILE_NAME ('87dc.STEP',
    '2023-02-13T17:02:33',
    ( '' ),
    ( '' ),
    'SwSTEP 2.0',
    'SolidWorks 2019',
    '' );
FILE_SCHEMA (( 'CONFIG_CONTROL_DESIGN' ));
ENDSEC;

DATA;
#1 = CALENDAR_DATE ( 2023, 13, 2 ) ;
#2 = DIRECTION ( 'NONE',  ( 0.000000000000000000, 0.000000000000000000, 1.000000000000000000 ) ) ;
#3 = APPROVAL_STATUS ( 'not_yet_approved' ) ;
#4 = PLANE ( 'NONE',  #254 ) ;
#5 = APPROVAL_PERSON_ORGANIZATION ( #168, #90, #47 ) ;
#6 = PLANE ( 'NONE',  #33 ) ;
#7 = DATE_AND_TIME ( #119, #215 ) ;
#8 = ORIENTED_EDGE ( 'NONE', *, *, #150, .F. ) ;
#9 = CARTESIAN_POINT ( 'NONE',  ( 0.000000000000000000, 0.000000000000000000, 200.0000000000000000 ) ) ;
#10 = CARTESIAN_POINT ( 'NONE',  ( 0.000000000000000000, 0.000000000000000000, 3.000000000000000000 ) ) ;
#11 = CARTESIAN_POINT ( 'NONE',  ( -3.000000000000000444, 0.000000000000000000, 3.000000000000000000 ) ) ;
#12 = AXIS2_PLACEMENT_3D ( 'NONE', #22, #78, #17 ) ;
#13 = DIRECTION ( 'NONE',  ( 0.000000000000000000, 0.000000000000000000, 1.000000000000000000 ) ) ;
#14 = CC_DESIGN_PERSON_AND_ORGANIZATION_ASSIGNMENT ( #99, #115, ( #112 ) ) ;
#15 = DIRECTION ( 'NONE',  ( -0.000000000000000000, -0.000000000000000000, -1.000000000000000000 ) ) ;
#16 = EDGE_CURVE ( 'NONE', #233, #83, #120, .T. ) ;
#17 = DIRECTION ( 'NONE',  ( -1.000000000000000000, 0.000000000000000000, 0.000000000000000000 ) ) ;
#18 = CALENDAR_DATE ( 2023, 13, 2 ) ;
#19 = AXIS2_PLACEMENT_3D ( 'NONE', #9, #81, #198 ) ;
#20 = ORIENTED_EDGE ( 'NONE', *, *, #170, .F. ) ;
#21 = COORDINATED_UNIVERSAL_TIME_OFFSET ( 1, 0, .AHEAD. ) ;
#22 = CARTESIAN_POINT ( 'NONE',  ( 0.000000000000000000, 0.000000000000000000, 200.0000000000000000 ) ) ;
#23 = CARTESIAN_POINT ( 'NONE',  ( -1.500000000000000222, 0.000000000000000000, 3.000000000000000000 ) ) ;
#24 = MECHANICAL_CONTEXT ( 'NONE', #74, 'mechanical' ) ;
#25 = APPLICATION_CONTEXT ( 'configuration controlled 3d designs of mechanical parts and assemblies' ) ;
#26 = DIRECTION ( 'NONE',  ( -0.000000000000000000, -0.000000000000000000, -1.000000000000000000 ) ) ;
#27 = CARTESIAN_POINT ( 'NONE',  ( 0.000000000000000000, 0.000000000000000000, 200.0000000000000000 ) ) ;
#28 = DIRECTION ( 'NONE',  ( -0.000000000000000000, -0.000000000000000000, -1.000000000000000000 ) ) ;
#29 = CALENDAR_DATE ( 2023, 13, 2 ) ;
#30 = DIRECTION ( 'NONE',  ( 1.000000000000000000, 0.000000000000000000, 0.000000000000000000 ) ) ;
#31 = EDGE_CURVE ( 'NONE', #239, #131, #139, .T. ) ;
#32 = EDGE_LOOP ( 'NONE', ( #247, #134 ) ) ;
#33 = AXIS2_PLACEMENT_3D ( 'NONE', #49, #201, #71 ) ;
#34 = CC_DESIGN_APPROVAL ( #90, ( #45 ) ) ;
#35 = CYLINDRICAL_SURFACE ( 'NONE', #182, 3.000000000000000444 ) ;
#36 =( GEOMETRIC_REPRESENTATION_CONTEXT ( 3 ) GLOBAL_UNCERTAINTY_ASSIGNED_CONTEXT ( ( #235 ) ) GLOBAL_UNIT_ASSIGNED_CONTEXT ( ( #88, #225, #157 ) ) REPRESENTATION_CONTEXT ( 'NONE', 'WORKASPACE' ) );
#37 = EDGE_CURVE ( 'NONE', #131, #176, #46, .T. ) ;
#38 = CC_DESIGN_APPROVAL ( #146, ( #166 ) ) ;
#39 = EDGE_CURVE ( 'NONE', #239, #205, #184, .T. ) ;
#40 = ORIENTED_EDGE ( 'NONE', *, *, #16, .F. ) ;
#41 = APPROVAL_DATE_TIME ( #210, #90 ) ;
#42 = DATE_AND_TIME ( #142, #85 ) ;
#43 = VECTOR ( 'NONE', #216, 1000.000000000000000 ) ;
#44 = PLANE ( 'NONE',  #228 ) ;
#45 = PRODUCT_DEFINITION_FORMATION_WITH_SPECIFIED_SOURCE ( 'LIBOVOLNÝ', '', #112, .NOT_KNOWN. ) ;
#46 = CIRCLE ( 'NONE', #50, 3.000000000000000444 ) ;
#47 = APPROVAL_ROLE ( '' ) ;
#48 = FACE_OUTER_BOUND ( 'NONE', #218, .T. ) ;
#49 = CARTESIAN_POINT ( 'NONE',  ( 0.000000000000000000, 0.000000000000000000, 0.000000000000000000 ) ) ;
#50 = AXIS2_PLACEMENT_3D ( 'NONE', #222, #51, #174 ) ;
#51 = DIRECTION ( 'NONE',  ( 0.000000000000000000, 0.000000000000000000, 1.000000000000000000 ) ) ;
#52 = CARTESIAN_POINT ( 'NONE',  ( 0.000000000000000000, 0.000000000000000000, 0.000000000000000000 ) ) ;
#53 = VECTOR ( 'NONE', #91, 1000.000000000000000 ) ;
#54 = CARTESIAN_POINT ( 'NONE',  ( 0.000000000000000000, 0.000000000000000000, 3.000000000000000000 ) ) ;
#55 = MANIFOLD_SOLID_BREP ( 'Pøidat vysunutím3', #232 ) ;
#56 = FACE_OUTER_BOUND ( 'NONE', #124, .T. ) ;
#57 = CARTESIAN_POINT ( 'NONE',  ( 0.000000000000000000, 0.000000000000000000, 3.000000000000000000 ) ) ;
#58 = ADVANCED_FACE ( 'NONE', ( #108 ), #35, .T. ) ;
#59 = CARTESIAN_POINT ( 'NONE',  ( 1.500000000000000222, 1.836970198721030181E-16, 200.0000000000000000 ) ) ;
#60 = ORIENTED_EDGE ( 'NONE', *, *, #37, .T. ) ;
#61 = CC_DESIGN_PERSON_AND_ORGANIZATION_ASSIGNMENT ( #255, #220, ( #45 ) ) ;
#62 = LINE ( 'NONE', #84, #137 ) ;
#63 = AXIS2_PLACEMENT_3D ( 'NONE', #171, #2, #234 ) ;
#64 = PERSON_AND_ORGANIZATION ( #93, #109 ) ;
#65 = COORDINATED_UNIVERSAL_TIME_OFFSET ( 1, 0, .AHEAD. ) ;
#66 = DIRECTION ( 'NONE',  ( 1.000000000000000000, 0.000000000000000000, 0.000000000000000000 ) ) ;
#67 = CIRCLE ( 'NONE', #19, 1.500000000000000222 ) ;
#68 = ORIENTED_EDGE ( 'NONE', *, *, #79, .T. ) ;
#69 = CARTESIAN_POINT ( 'NONE',  ( 0.000000000000000000, 0.000000000000000000, 200.0000000000000000 ) ) ;
#70 = EDGE_CURVE ( 'NONE', #205, #176, #87, .T. ) ;
#71 = DIRECTION ( 'NONE',  ( 1.000000000000000000, 0.000000000000000000, -0.000000000000000000 ) ) ;
#72 = EDGE_CURVE ( 'NONE', #192, #83, #118, .T. ) ;
#73 = LOCAL_TIME ( 18, 2, 33.00000000000000000, #21 ) ;
#74 = APPLICATION_CONTEXT ( 'configuration controlled 3d designs of mechanical parts and assemblies' ) ;
#75 = ORIENTED_EDGE ( 'NONE', *, *, #238, .T. ) ;
#76 = PRODUCT_DEFINITION_SHAPE ( 'NONE', 'NONE',  #159 ) ;
#77 = DATE_TIME_ROLE ( 'classification_date' ) ;
#78 = DIRECTION ( 'NONE',  ( -0.000000000000000000, -0.000000000000000000, -1.000000000000000000 ) ) ;
#79 = EDGE_CURVE ( 'NONE', #83, #233, #214, .T. ) ;
#80 = DATE_AND_TIME ( #18, #121 ) ;
#81 = DIRECTION ( 'NONE',  ( 0.000000000000000000, 0.000000000000000000, 1.000000000000000000 ) ) ;
#82 = DIRECTION ( 'NONE',  ( 0.000000000000000000, 0.000000000000000000, 1.000000000000000000 ) ) ;
#83 = VERTEX_POINT ( 'NONE', #23 ) ;
#84 = CARTESIAN_POINT ( 'NONE',  ( 1.500000000000000222, 1.836970198721030181E-16, 200.0000000000000000 ) ) ;
#85 = LOCAL_TIME ( 18, 2, 33.00000000000000000, #65 ) ;
#86 = ADVANCED_FACE ( 'NONE', ( #48 ), #116, .T. ) ;
#87 = LINE ( 'NONE', #160, #53 ) ;
#88 =( LENGTH_UNIT ( ) NAMED_UNIT ( * ) SI_UNIT ( .MILLI., .METRE. ) );
#89 = APPROVAL_PERSON_ORGANIZATION ( #167, #248, #111 ) ;
#90 = APPROVAL ( #175, 'NEURÈENÝ' ) ;
#91 = DIRECTION ( 'NONE',  ( -0.000000000000000000, -0.000000000000000000, -1.000000000000000000 ) ) ;
#92 = DIRECTION ( 'NONE',  ( -1.000000000000000000, 0.000000000000000000, 0.000000000000000000 ) ) ;
#93 = PERSON ( 'NEURÈENÝ', 'NEURÈENÝ', 'NEURÈENÝ', ('NEURÈENÝ'), ('NEURÈENÝ'), ('NEURÈENÝ') ) ;
#94 = PRODUCT_RELATED_PRODUCT_CATEGORY ( 'detail', '', ( #112 ) ) ;
#95 = CIRCLE ( 'NONE', #63, 3.000000000000000444 ) ;
#96 = ORIENTED_EDGE ( 'NONE', *, *, #72, .F. ) ;
#97 = ORIENTED_EDGE ( 'NONE', *, *, #70, .F. ) ;
#98 = DIRECTION ( 'NONE',  ( -0.000000000000000000, -0.000000000000000000, -1.000000000000000000 ) ) ;
#99 = PERSON_AND_ORGANIZATION ( #93, #109 ) ;
#100 = CARTESIAN_POINT ( 'NONE',  ( -1.500000000000000222, 0.000000000000000000, 200.0000000000000000 ) ) ;
#101 = PERSON_AND_ORGANIZATION_ROLE ( 'classification_officer' ) ;
#102 = AXIS2_PLACEMENT_3D ( 'NONE', #103, #82, #155 ) ;
#103 = CARTESIAN_POINT ( 'NONE',  ( 0.000000000000000000, 0.000000000000000000, 0.000000000000000000 ) ) ;
#104 = EDGE_LOOP ( 'NONE', ( #209, #211, #207, #153 ) ) ;
#105 = CARTESIAN_POINT ( 'NONE',  ( 1.500000000000000222, 1.836970198721030181E-16, 3.000000000000000000 ) ) ;
#106 = ADVANCED_FACE ( 'NONE', ( #249 ), #6, .F. ) ;
#107 = ORIENTED_EDGE ( 'NONE', *, *, #39, .F. ) ;
#108 = FACE_OUTER_BOUND ( 'NONE', #104, .T. ) ;
#109 = ORGANIZATION ( 'NEURÈENÝ', 'NEURÈENÝ', '' ) ;
#110 = ORIENTED_EDGE ( 'NONE', *, *, #238, .F. ) ;
#111 = APPROVAL_ROLE ( '' ) ;
#112 = PRODUCT ( '87dc', '87dc', '', ( #24 ) ) ;
#113 = SECURITY_CLASSIFICATION_LEVEL ( 'unclassified' ) ;
#114 = DIRECTION ( 'NONE',  ( 1.000000000000000000, 0.000000000000000000, -0.000000000000000000 ) ) ;
#115 = PERSON_AND_ORGANIZATION_ROLE ( 'design_owner' ) ;
#116 = CYLINDRICAL_SURFACE ( 'NONE', #162, 1.500000000000000222 ) ;
#117 = ADVANCED_BREP_SHAPE_REPRESENTATION ( '87dc', ( #55, #102 ), #36 ) ;
#118 = LINE ( 'NONE', #158, #43 ) ;
#119 = CALENDAR_DATE ( 2023, 13, 2 ) ;
#120 = CIRCLE ( 'NONE', #227, 1.500000000000000222 ) ;
#121 = LOCAL_TIME ( 18, 2, 33.00000000000000000, #133 ) ;
#122 = DIRECTION ( 'NONE',  ( 0.000000000000000000, 0.000000000000000000, 1.000000000000000000 ) ) ;
#123 = CC_DESIGN_PERSON_AND_ORGANIZATION_ASSIGNMENT ( #179, #193, ( #159 ) ) ;
#124 = EDGE_LOOP ( 'NONE', ( #110, #125, #203, #96 ) ) ;
#125 = ORIENTED_EDGE ( 'NONE', *, *, #170, .T. ) ;
#126 = AXIS2_PLACEMENT_3D ( 'NONE', #54, #15, #92 ) ;
#127 = AXIS2_PLACEMENT_3D ( 'NONE', #52, #204, #30 ) ;
#128 = ADVANCED_FACE ( 'NONE', ( #147 ), #229, .T. ) ;
#129 = CARTESIAN_POINT ( 'NONE',  ( 0.000000000000000000, 0.000000000000000000, 3.000000000000000000 ) ) ;
#130 = EDGE_CURVE ( 'NONE', #205, #239, #95, .T. ) ;
#131 = VERTEX_POINT ( 'NONE', #208 ) ;
#132 = ORIENTED_EDGE ( 'NONE', *, *, #72, .T. ) ;
#133 = COORDINATED_UNIVERSAL_TIME_OFFSET ( 1, 0, .AHEAD. ) ;
#134 = ORIENTED_EDGE ( 'NONE', *, *, #130, .T. ) ;
#135 = COORDINATED_UNIVERSAL_TIME_OFFSET ( 1, 0, .AHEAD. ) ;
#136 = ADVANCED_FACE ( 'NONE', ( #56 ), #195, .T. ) ;
#137 = VECTOR ( 'NONE', #26, 1000.000000000000000 ) ;
#138 = CARTESIAN_POINT ( 'NONE',  ( 3.000000000000000444, 3.673940397442060361E-16, 3.000000000000000000 ) ) ;
#139 = LINE ( 'NONE', #141, #149 ) ;
#140 = SHAPE_DEFINITION_REPRESENTATION ( #76, #117 ) ;
#141 = CARTESIAN_POINT ( 'NONE',  ( -3.000000000000000444, 0.000000000000000000, 3.000000000000000000 ) ) ;
#142 = CALENDAR_DATE ( 2023, 13, 2 ) ;
#143 = CIRCLE ( 'NONE', #127, 3.000000000000000444 ) ;
#144 = DIRECTION ( 'NONE',  ( 1.000000000000000000, 0.000000000000000000, -0.000000000000000000 ) ) ;
#145 = DESIGN_CONTEXT ( 'detailed design', #25, 'design' ) ;
#146 = APPROVAL ( #3, 'NEURÈENÝ' ) ;
#147 = FACE_OUTER_BOUND ( 'NONE', #156, .T. ) ;
#148 = CC_DESIGN_APPROVAL ( #248, ( #159 ) ) ;
#149 = VECTOR ( 'NONE', #28, 1000.000000000000000 ) ;
#150 = EDGE_CURVE ( 'NONE', #192, #152, #67, .T. ) ;
#151 = ORIENTED_EDGE ( 'NONE', *, *, #79, .F. ) ;
#152 = VERTEX_POINT ( 'NONE', #59 ) ;
#153 = ORIENTED_EDGE ( 'NONE', *, *, #31, .F. ) ;
#154 = CC_DESIGN_DATE_AND_TIME_ASSIGNMENT ( #7, #77, ( #166 ) ) ;
#155 = DIRECTION ( 'NONE',  ( 1.000000000000000000, 0.000000000000000000, 0.000000000000000000 ) ) ;
#156 = EDGE_LOOP ( 'NONE', ( #97, #107, #163, #60 ) ) ;
#157 =( NAMED_UNIT ( * ) SI_UNIT ( $, .STERADIAN. ) SOLID_ANGLE_UNIT ( ) );
#158 = CARTESIAN_POINT ( 'NONE',  ( -1.500000000000000222, 0.000000000000000000, 200.0000000000000000 ) ) ;
#159 = PRODUCT_DEFINITION ( 'NEZNÁMÝ', '', #45, #145 ) ;
#160 = CARTESIAN_POINT ( 'NONE',  ( 3.000000000000000444, 3.673940397442060361E-16, 3.000000000000000000 ) ) ;
#161 = APPROVAL_PERSON_ORGANIZATION ( #64, #146, #202 ) ;
#162 = AXIS2_PLACEMENT_3D ( 'NONE', #27, #98, #185 ) ;
#163 = ORIENTED_EDGE ( 'NONE', *, *, #31, .T. ) ;
#164 = ADVANCED_FACE ( 'NONE', ( #191, #213 ), #44, .T. ) ;
#165 = EDGE_LOOP ( 'NONE', ( #189, #75 ) ) ;
#166 = SECURITY_CLASSIFICATION ( '', '', #113 ) ;
#167 = PERSON_AND_ORGANIZATION ( #93, #109 ) ;
#168 = PERSON_AND_ORGANIZATION ( #93, #109 ) ;
#169 = CARTESIAN_POINT ( 'NONE',  ( 0.000000000000000000, 0.000000000000000000, 3.000000000000000000 ) ) ;
#170 = EDGE_CURVE ( 'NONE', #152, #233, #62, .T. ) ;
#171 = CARTESIAN_POINT ( 'NONE',  ( 0.000000000000000000, 0.000000000000000000, 3.000000000000000000 ) ) ;
#172 = PERSON_AND_ORGANIZATION_ROLE ( 'creator' ) ;
#173 = FACE_OUTER_BOUND ( 'NONE', #165, .T. ) ;
#174 = DIRECTION ( 'NONE',  ( 1.000000000000000000, 0.000000000000000000, 0.000000000000000000 ) ) ;
#175 = APPROVAL_STATUS ( 'not_yet_approved' ) ;
#176 = VERTEX_POINT ( 'NONE', #241 ) ;
#177 = CC_DESIGN_SECURITY_CLASSIFICATION ( #166, ( #45 ) ) ;
#178 = DIRECTION ( 'NONE',  ( 0.000000000000000000, 0.000000000000000000, 1.000000000000000000 ) ) ;
#179 = PERSON_AND_ORGANIZATION ( #93, #109 ) ;
#180 = DIRECTION ( 'NONE',  ( 1.000000000000000000, 0.000000000000000000, 0.000000000000000000 ) ) ;
#181 = DIRECTION ( 'NONE',  ( 0.000000000000000000, 0.000000000000000000, 1.000000000000000000 ) ) ;
#182 = AXIS2_PLACEMENT_3D ( 'NONE', #10, #206, #230 ) ;
#183 = CIRCLE ( 'NONE', #188, 1.500000000000000222 ) ;
#184 = CIRCLE ( 'NONE', #186, 3.000000000000000444 ) ;
#185 = DIRECTION ( 'NONE',  ( -1.000000000000000000, 0.000000000000000000, 0.000000000000000000 ) ) ;
#186 = AXIS2_PLACEMENT_3D ( 'NONE', #129, #13, #250 ) ;
#187 = CC_DESIGN_PERSON_AND_ORGANIZATION_ASSIGNMENT ( #197, #101, ( #166 ) ) ;
#188 = AXIS2_PLACEMENT_3D ( 'NONE', #69, #122, #180 ) ;
#189 = ORIENTED_EDGE ( 'NONE', *, *, #150, .T. ) ;
#190 = PERSON_AND_ORGANIZATION ( #93, #109 ) ;
#191 = FACE_BOUND ( 'NONE', #236, .T. ) ;
#192 = VERTEX_POINT ( 'NONE', #100 ) ;
#193 = PERSON_AND_ORGANIZATION_ROLE ( 'creator' ) ;
#194 = CC_DESIGN_PERSON_AND_ORGANIZATION_ASSIGNMENT ( #190, #172, ( #45 ) ) ;
#195 = CYLINDRICAL_SURFACE ( 'NONE', #12, 1.500000000000000222 ) ;
#196 = DIRECTION ( 'NONE',  ( 0.000000000000000000, 0.000000000000000000, 1.000000000000000000 ) ) ;
#197 = PERSON_AND_ORGANIZATION ( #93, #109 ) ;
#198 = DIRECTION ( 'NONE',  ( 1.000000000000000000, 0.000000000000000000, 0.000000000000000000 ) ) ;
#199 = DATE_TIME_ROLE ( 'creation_date' ) ;
#200 = CC_DESIGN_DATE_AND_TIME_ASSIGNMENT ( #42, #199, ( #159 ) ) ;
#201 = DIRECTION ( 'NONE',  ( 0.000000000000000000, 0.000000000000000000, 1.000000000000000000 ) ) ;
#202 = APPROVAL_ROLE ( '' ) ;
#203 = ORIENTED_EDGE ( 'NONE', *, *, #16, .T. ) ;
#204 = DIRECTION ( 'NONE',  ( 0.000000000000000000, 0.000000000000000000, 1.000000000000000000 ) ) ;
#205 = VERTEX_POINT ( 'NONE', #138 ) ;
#206 = DIRECTION ( 'NONE',  ( -0.000000000000000000, -0.000000000000000000, -1.000000000000000000 ) ) ;
#207 = ORIENTED_EDGE ( 'NONE', *, *, #244, .T. ) ;
#208 = CARTESIAN_POINT ( 'NONE',  ( -3.000000000000000444, 0.000000000000000000, 0.000000000000000000 ) ) ;
#209 = ORIENTED_EDGE ( 'NONE', *, *, #130, .F. ) ;
#210 = DATE_AND_TIME ( #1, #73 ) ;
#211 = ORIENTED_EDGE ( 'NONE', *, *, #70, .T. ) ;
#212 = APPLICATION_PROTOCOL_DEFINITION ( 'international standard', 'config_control_design', 1994, #25 ) ;
#213 = FACE_OUTER_BOUND ( 'NONE', #32, .T. ) ;
#214 = CIRCLE ( 'NONE', #251, 1.500000000000000222 ) ;
#215 = LOCAL_TIME ( 18, 2, 33.00000000000000000, #135 ) ;
#216 = DIRECTION ( 'NONE',  ( -0.000000000000000000, -0.000000000000000000, -1.000000000000000000 ) ) ;
#217 = APPROVAL_DATE_TIME ( #80, #146 ) ;
#218 = EDGE_LOOP ( 'NONE', ( #20, #8, #132, #68 ) ) ;
#219 = CARTESIAN_POINT ( 'NONE',  ( 0.000000000000000000, 0.000000000000000000, 3.000000000000000000 ) ) ;
#220 = PERSON_AND_ORGANIZATION_ROLE ( 'design_supplier' ) ;
#221 = CARTESIAN_POINT ( 'NONE',  ( 0.000000000000000000, 0.000000000000000000, 200.0000000000000000 ) ) ;
#222 = CARTESIAN_POINT ( 'NONE',  ( 0.000000000000000000, 0.000000000000000000, 0.000000000000000000 ) ) ;
#223 = APPLICATION_PROTOCOL_DEFINITION ( 'international standard', 'config_control_design', 1994, #74 ) ;
#224 = ORIENTED_EDGE ( 'NONE', *, *, #37, .F. ) ;
#225 =( NAMED_UNIT ( * ) PLANE_ANGLE_UNIT ( ) SI_UNIT ( $, .RADIAN. ) );
#226 = ADVANCED_FACE ( 'NONE', ( #173 ), #4, .T. ) ;
#227 = AXIS2_PLACEMENT_3D ( 'NONE', #57, #178, #242 ) ;
#228 = AXIS2_PLACEMENT_3D ( 'NONE', #169, #237, #114 ) ;
#229 = CYLINDRICAL_SURFACE ( 'NONE', #126, 3.000000000000000444 ) ;
#230 = DIRECTION ( 'NONE',  ( -1.000000000000000000, 0.000000000000000000, 0.000000000000000000 ) ) ;
#231 = LOCAL_TIME ( 18, 2, 33.00000000000000000, #246 ) ;
#232 = CLOSED_SHELL ( 'NONE', ( #136, #58, #128, #164, #106, #86, #226 ) ) ;
#233 = VERTEX_POINT ( 'NONE', #105 ) ;
#234 = DIRECTION ( 'NONE',  ( 1.000000000000000000, 0.000000000000000000, 0.000000000000000000 ) ) ;
#235 = UNCERTAINTY_MEASURE_WITH_UNIT (LENGTH_MEASURE( 1.000000000000000082E-05 ), #88, 'distance_accuracy_value', 'NONE');
#236 = EDGE_LOOP ( 'NONE', ( #151, #40 ) ) ;
#237 = DIRECTION ( 'NONE',  ( 0.000000000000000000, 0.000000000000000000, 1.000000000000000000 ) ) ;
#238 = EDGE_CURVE ( 'NONE', #152, #192, #183, .T. ) ;
#239 = VERTEX_POINT ( 'NONE', #11 ) ;
#240 = APPROVAL_STATUS ( 'not_yet_approved' ) ;
#241 = CARTESIAN_POINT ( 'NONE',  ( 3.000000000000000444, 3.673940397442060361E-16, 0.000000000000000000 ) ) ;
#242 = DIRECTION ( 'NONE',  ( 1.000000000000000000, 0.000000000000000000, 0.000000000000000000 ) ) ;
#243 = APPROVAL_DATE_TIME ( #245, #248 ) ;
#244 = EDGE_CURVE ( 'NONE', #176, #131, #143, .T. ) ;
#245 = DATE_AND_TIME ( #29, #231 ) ;
#246 = COORDINATED_UNIVERSAL_TIME_OFFSET ( 1, 0, .AHEAD. ) ;
#247 = ORIENTED_EDGE ( 'NONE', *, *, #39, .T. ) ;
#248 = APPROVAL ( #240, 'NEURÈENÝ' ) ;
#249 = FACE_OUTER_BOUND ( 'NONE', #253, .T. ) ;
#250 = DIRECTION ( 'NONE',  ( 1.000000000000000000, 0.000000000000000000, 0.000000000000000000 ) ) ;
#251 = AXIS2_PLACEMENT_3D ( 'NONE', #219, #196, #66 ) ;
#252 = ORIENTED_EDGE ( 'NONE', *, *, #244, .F. ) ;
#253 = EDGE_LOOP ( 'NONE', ( #224, #252 ) ) ;
#254 = AXIS2_PLACEMENT_3D ( 'NONE', #221, #181, #144 ) ;
#255 = PERSON_AND_ORGANIZATION ( #93, #109 ) ;
ENDSEC;
END-ISO-10303-21;
