ISO-10303-21;
HEADER;
FILE_DESCRIPTION (( 'STEP AP203' ),
    '1' );
FILE_NAME ('e98e.STEP',
    '2023-02-13T14:18:21',
    ( '' ),
    ( '' ),
    'SwSTEP 2.0',
    'SolidWorks 2019',
    '' );
FILE_SCHEMA (( 'CONFIG_CONTROL_DESIGN' ));
ENDSEC;

DATA;
#1 = VERTEX_POINT ( 'NONE', #147 ) ;
#2 = ORIENTED_EDGE ( 'NONE', *, *, #218, .F. ) ;
#3 = CARTESIAN_POINT ( 'NONE',  ( -4.000000000000000000, 0.000000000000000000, 799.9999999999998863 ) ) ;
#4 = ORIENTED_EDGE ( 'NONE', *, *, #131, .T. ) ;
#5 = PRODUCT_DEFINITION_FORMATION_WITH_SPECIFIED_SOURCE ( 'LIBOVOLNÝ', '', #103, .NOT_KNOWN. ) ;
#6 = CIRCLE ( 'NONE', #51, 4.000000000000000000 ) ;
#7 = CARTESIAN_POINT ( 'NONE',  ( 7.000000000000000000, 8.572527594031471218E-16, 6.500000000000000000 ) ) ;
#8 = ORIENTED_EDGE ( 'NONE', *, *, #101, .F. ) ;
#9 = LINE ( 'NONE', #7, #170 ) ;
#10 = ORIENTED_EDGE ( 'NONE', *, *, #193, .F. ) ;
#11 = CC_DESIGN_PERSON_AND_ORGANIZATION_ASSIGNMENT ( #251, #189, ( #5 ) ) ;
#12 = DIRECTION ( 'NONE',  ( -0.000000000000000000, -0.000000000000000000, -1.000000000000000000 ) ) ;
#13 = CARTESIAN_POINT ( 'NONE',  ( 7.000000000000000000, 8.572527594031471218E-16, 0.000000000000000000 ) ) ;
#14 = LOCAL_TIME ( 15, 18, 21.00000000000000000, #171 ) ;
#15 = DIRECTION ( 'NONE',  ( 0.000000000000000000, 0.000000000000000000, 1.000000000000000000 ) ) ;
#16 = CARTESIAN_POINT ( 'NONE',  ( -7.000000000000000000, 0.000000000000000000, 6.500000000000000000 ) ) ;
#17 = DIRECTION ( 'NONE',  ( 1.000000000000000000, 0.000000000000000000, 0.000000000000000000 ) ) ;
#18 = AXIS2_PLACEMENT_3D ( 'NONE', #181, #178, #144 ) ;
#19 = DIRECTION ( 'NONE',  ( 1.000000000000000000, 0.000000000000000000, 0.000000000000000000 ) ) ;
#20 = ADVANCED_BREP_SHAPE_REPRESENTATION ( 'e98e', ( #253, #199 ), #222 ) ;
#21 = EDGE_CURVE ( 'NONE', #1, #163, #117, .T. ) ;
#22 = VECTOR ( 'NONE', #102, 1000.000000000000000 ) ;
#23 = CARTESIAN_POINT ( 'NONE',  ( 4.000000000000000000, 4.898587196589412829E-16, 799.9999999999998863 ) ) ;
#24 = CC_DESIGN_PERSON_AND_ORGANIZATION_ASSIGNMENT ( #111, #239, ( #103 ) ) ;
#25 = DIRECTION ( 'NONE',  ( 1.000000000000000000, 0.000000000000000000, 0.000000000000000000 ) ) ;
#26 = ORIENTED_EDGE ( 'NONE', *, *, #193, .T. ) ;
#27 = FACE_OUTER_BOUND ( 'NONE', #150, .T. ) ;
#28 = ORIENTED_EDGE ( 'NONE', *, *, #21, .F. ) ;
#29 = ADVANCED_FACE ( 'NONE', ( #247 ), #55, .T. ) ;
#30 = CC_DESIGN_DATE_AND_TIME_ASSIGNMENT ( #121, #54, ( #231 ) ) ;
#31 = DIRECTION ( 'NONE',  ( 0.000000000000000000, 0.000000000000000000, 1.000000000000000000 ) ) ;
#32 = CC_DESIGN_APPROVAL ( #85, ( #255 ) ) ;
#33 = APPLICATION_PROTOCOL_DEFINITION ( 'international standard', 'config_control_design', 1994, #228 ) ;
#34 = ORIENTED_EDGE ( 'NONE', *, *, #218, .T. ) ;
#35 = FACE_OUTER_BOUND ( 'NONE', #45, .T. ) ;
#36 = CALENDAR_DATE ( 2023, 13, 2 ) ;
#37 = DATE_AND_TIME ( #187, #14 ) ;
#38 = DIRECTION ( 'NONE',  ( 1.000000000000000000, 0.000000000000000000, -0.000000000000000000 ) ) ;
#39 = CALENDAR_DATE ( 2023, 13, 2 ) ;
#40 = COORDINATED_UNIVERSAL_TIME_OFFSET ( 1, 0, .AHEAD. ) ;
#41 = CARTESIAN_POINT ( 'NONE',  ( -7.000000000000000000, 0.000000000000000000, 0.000000000000000000 ) ) ;
#42 = DIRECTION ( 'NONE',  ( -0.000000000000000000, -0.000000000000000000, -1.000000000000000000 ) ) ;
#43 = COORDINATED_UNIVERSAL_TIME_OFFSET ( 1, 0, .AHEAD. ) ;
#44 = EDGE_CURVE ( 'NONE', #47, #109, #75, .T. ) ;
#45 = EDGE_LOOP ( 'NONE', ( #4, #129 ) ) ;
#46 = DIRECTION ( 'NONE',  ( 0.000000000000000000, 0.000000000000000000, 1.000000000000000000 ) ) ;
#47 = VERTEX_POINT ( 'NONE', #13 ) ;
#48 = DIRECTION ( 'NONE',  ( 1.000000000000000000, 0.000000000000000000, 0.000000000000000000 ) ) ;
#49 = VERTEX_POINT ( 'NONE', #74 ) ;
#50 = DESIGN_CONTEXT ( 'detailed design', #244, 'design' ) ;
#51 = AXIS2_PLACEMENT_3D ( 'NONE', #67, #31, #25 ) ;
#52 = CARTESIAN_POINT ( 'NONE',  ( 0.000000000000000000, 0.000000000000000000, 6.500000000000000000 ) ) ;
#53 = CC_DESIGN_PERSON_AND_ORGANIZATION_ASSIGNMENT ( #158, #226, ( #255 ) ) ;
#54 = DATE_TIME_ROLE ( 'creation_date' ) ;
#55 = CYLINDRICAL_SURFACE ( 'NONE', #123, 4.000000000000000000 ) ;
#56 = APPROVAL_DATE_TIME ( #169, #85 ) ;
#57 = PLANE ( 'NONE',  #61 ) ;
#58 = CIRCLE ( 'NONE', #99, 7.000000000000000000 ) ;
#59 = APPROVAL_DATE_TIME ( #37, #108 ) ;
#60 = DIRECTION ( 'NONE',  ( -0.000000000000000000, -0.000000000000000000, -1.000000000000000000 ) ) ;
#61 = AXIS2_PLACEMENT_3D ( 'NONE', #159, #252, #122 ) ;
#62 = VECTOR ( 'NONE', #42, 1000.000000000000000 ) ;
#63 = APPLICATION_PROTOCOL_DEFINITION ( 'international standard', 'config_control_design', 1994, #244 ) ;
#64 = ADVANCED_FACE ( 'NONE', ( #157, #35 ), #203, .T. ) ;
#65 = PERSON_AND_ORGANIZATION ( #100, #210 ) ;
#66 = ORIENTED_EDGE ( 'NONE', *, *, #92, .F. ) ;
#67 = CARTESIAN_POINT ( 'NONE',  ( 0.000000000000000000, 0.000000000000000000, 6.500000000000000000 ) ) ;
#68 = PLANE ( 'NONE',  #18 ) ;
#69 = EDGE_CURVE ( 'NONE', #91, #149, #214, .T. ) ;
#70 = LOCAL_TIME ( 15, 18, 21.00000000000000000, #43 ) ;
#71 = DIRECTION ( 'NONE',  ( 1.000000000000000000, 0.000000000000000000, 0.000000000000000000 ) ) ;
#72 = ADVANCED_FACE ( 'NONE', ( #229 ), #154, .T. ) ;
#73 = APPROVAL ( #216, 'NEURÈENÝ' ) ;
#74 = CARTESIAN_POINT ( 'NONE',  ( 4.000000000000000000, 4.898587196589412829E-16, 799.9999999999998863 ) ) ;
#75 = CIRCLE ( 'NONE', #248, 7.000000000000000000 ) ;
#76 = PERSON_AND_ORGANIZATION ( #100, #210 ) ;
#77 = APPROVAL_PERSON_ORGANIZATION ( #230, #108, #200 ) ;
#78 = DIRECTION ( 'NONE',  ( 0.000000000000000000, 0.000000000000000000, 1.000000000000000000 ) ) ;
#79 = DATE_AND_TIME ( #96, #206 ) ;
#80 = CARTESIAN_POINT ( 'NONE',  ( 0.000000000000000000, 0.000000000000000000, 799.9999999999998863 ) ) ;
#81 = CC_DESIGN_DATE_AND_TIME_ASSIGNMENT ( #79, #119, ( #255 ) ) ;
#82 = MECHANICAL_CONTEXT ( 'NONE', #228, 'mechanical' ) ;
#83 = EDGE_LOOP ( 'NONE', ( #2, #146, #243, #240 ) ) ;
#84 = EDGE_LOOP ( 'NONE', ( #168, #196, #182, #26 ) ) ;
#85 = APPROVAL ( #116, 'NEURÈENÝ' ) ;
#86 = LOCAL_TIME ( 15, 18, 21.00000000000000000, #40 ) ;
#87 = CARTESIAN_POINT ( 'NONE',  ( 0.000000000000000000, 0.000000000000000000, 0.000000000000000000 ) ) ;
#88 = ADVANCED_FACE ( 'NONE', ( #132 ), #224, .T. ) ;
#89 = DIRECTION ( 'NONE',  ( -0.000000000000000000, -0.000000000000000000, -1.000000000000000000 ) ) ;
#90 = EDGE_LOOP ( 'NONE', ( #10, #128 ) ) ;
#91 = VERTEX_POINT ( 'NONE', #139 ) ;
#92 = EDGE_CURVE ( 'NONE', #217, #49, #177, .T. ) ;
#93 = DIRECTION ( 'NONE',  ( -1.000000000000000000, 0.000000000000000000, 0.000000000000000000 ) ) ;
#94 = APPROVAL_ROLE ( '' ) ;
#95 = CARTESIAN_POINT ( 'NONE',  ( 0.000000000000000000, 0.000000000000000000, 6.500000000000000000 ) ) ;
#96 = CALENDAR_DATE ( 2023, 13, 2 ) ;
#97 = AXIS2_PLACEMENT_3D ( 'NONE', #87, #46, #179 ) ;
#98 = CARTESIAN_POINT ( 'NONE',  ( 0.000000000000000000, 0.000000000000000000, 6.500000000000000000 ) ) ;
#99 = AXIS2_PLACEMENT_3D ( 'NONE', #98, #174, #17 ) ;
#100 = PERSON ( 'NEURÈENÝ', 'NEURÈENÝ', 'NEURÈENÝ', ('NEURÈENÝ'), ('NEURÈENÝ'), ('NEURÈENÝ') ) ;
#101 = EDGE_CURVE ( 'NONE', #163, #109, #208, .T. ) ;
#102 = DIRECTION ( 'NONE',  ( -0.000000000000000000, -0.000000000000000000, -1.000000000000000000 ) ) ;
#103 = PRODUCT ( 'e98e', 'e98e', '', ( #82 ) ) ;
#104 = CARTESIAN_POINT ( 'NONE',  ( 0.000000000000000000, 0.000000000000000000, 6.500000000000000000 ) ) ;
#105 = AXIS2_PLACEMENT_3D ( 'NONE', #80, #120, #19 ) ;
#106 = CIRCLE ( 'NONE', #97, 7.000000000000000000 ) ;
#107 =( NAMED_UNIT ( * ) PLANE_ANGLE_UNIT ( ) SI_UNIT ( $, .RADIAN. ) );
#108 = APPROVAL ( #173, 'NEURÈENÝ' ) ;
#109 = VERTEX_POINT ( 'NONE', #41 ) ;
#110 = LOCAL_TIME ( 15, 18, 21.00000000000000000, #207 ) ;
#111 = PERSON_AND_ORGANIZATION ( #100, #210 ) ;
#112 = ORIENTED_EDGE ( 'NONE', *, *, #92, .T. ) ;
#113 = DIRECTION ( 'NONE',  ( -0.000000000000000000, -0.000000000000000000, -1.000000000000000000 ) ) ;
#114 = DIRECTION ( 'NONE',  ( 1.000000000000000000, 0.000000000000000000, 0.000000000000000000 ) ) ;
#115 = ADVANCED_FACE ( 'NONE', ( #124 ), #209, .T. ) ;
#116 = APPROVAL_STATUS ( 'not_yet_approved' ) ;
#117 = CIRCLE ( 'NONE', #254, 7.000000000000000000 ) ;
#118 = CC_DESIGN_APPROVAL ( #73, ( #231 ) ) ;
#119 = DATE_TIME_ROLE ( 'classification_date' ) ;
#120 = DIRECTION ( 'NONE',  ( 0.000000000000000000, 0.000000000000000000, 1.000000000000000000 ) ) ;
#121 = DATE_AND_TIME ( #39, #110 ) ;
#122 = DIRECTION ( 'NONE',  ( 1.000000000000000000, 0.000000000000000000, -0.000000000000000000 ) ) ;
#123 = AXIS2_PLACEMENT_3D ( 'NONE', #246, #12, #93 ) ;
#124 = FACE_OUTER_BOUND ( 'NONE', #84, .T. ) ;
#125 = DATE_AND_TIME ( #127, #70 ) ;
#126 = CARTESIAN_POINT ( 'NONE',  ( 0.000000000000000000, 0.000000000000000000, 799.9999999999998863 ) ) ;
#127 = CALENDAR_DATE ( 2023, 13, 2 ) ;
#128 = ORIENTED_EDGE ( 'NONE', *, *, #44, .F. ) ;
#129 = ORIENTED_EDGE ( 'NONE', *, *, #21, .T. ) ;
#130 = CARTESIAN_POINT ( 'NONE',  ( 0.000000000000000000, 0.000000000000000000, 6.500000000000000000 ) ) ;
#131 = EDGE_CURVE ( 'NONE', #163, #1, #58, .T. ) ;
#132 = FACE_OUTER_BOUND ( 'NONE', #83, .T. ) ;
#133 = CC_DESIGN_PERSON_AND_ORGANIZATION_ASSIGNMENT ( #204, #137, ( #5 ) ) ;
#134 = VECTOR ( 'NONE', #198, 1000.000000000000000 ) ;
#135 = CARTESIAN_POINT ( 'NONE',  ( 0.000000000000000000, 0.000000000000000000, 6.500000000000000000 ) ) ;
#136 = SHAPE_DEFINITION_REPRESENTATION ( #236, #20 ) ;
#137 = PERSON_AND_ORGANIZATION_ROLE ( 'design_supplier' ) ;
#138 = DIRECTION ( 'NONE',  ( -1.000000000000000000, 0.000000000000000000, 0.000000000000000000 ) ) ;
#139 = CARTESIAN_POINT ( 'NONE',  ( -4.000000000000000000, 0.000000000000000000, 6.500000000000000000 ) ) ;
#140 = DIRECTION ( 'NONE',  ( -0.000000000000000000, -0.000000000000000000, -1.000000000000000000 ) ) ;
#141 = UNCERTAINTY_MEASURE_WITH_UNIT (LENGTH_MEASURE( 1.000000000000000082E-05 ), #237, 'distance_accuracy_value', 'NONE');
#142 = AXIS2_PLACEMENT_3D ( 'NONE', #95, #172, #201 ) ;
#143 = CIRCLE ( 'NONE', #249, 4.000000000000000000 ) ;
#144 = DIRECTION ( 'NONE',  ( 1.000000000000000000, 0.000000000000000000, -0.000000000000000000 ) ) ;
#145 = APPROVAL_ROLE ( '' ) ;
#146 = ORIENTED_EDGE ( 'NONE', *, *, #227, .T. ) ;
#147 = CARTESIAN_POINT ( 'NONE',  ( 7.000000000000000000, 8.572527594031471218E-16, 6.500000000000000000 ) ) ;
#148 = ADVANCED_FACE ( 'NONE', ( #234 ), #57, .F. ) ;
#149 = VERTEX_POINT ( 'NONE', #176 ) ;
#150 = EDGE_LOOP ( 'NONE', ( #112, #34 ) ) ;
#151 = AXIS2_PLACEMENT_3D ( 'NONE', #52, #185, #38 ) ;
#152 = CC_DESIGN_SECURITY_CLASSIFICATION ( #255, ( #5 ) ) ;
#153 = ORIENTED_EDGE ( 'NONE', *, *, #69, .T. ) ;
#154 = CYLINDRICAL_SURFACE ( 'NONE', #235, 7.000000000000000000 ) ;
#155 = APPROVAL_PERSON_ORGANIZATION ( #76, #85, #94 ) ;
#156 = COORDINATED_UNIVERSAL_TIME_OFFSET ( 1, 0, .AHEAD. ) ;
#157 = FACE_BOUND ( 'NONE', #194, .T. ) ;
#158 = PERSON_AND_ORGANIZATION ( #100, #210 ) ;
#159 = CARTESIAN_POINT ( 'NONE',  ( 0.000000000000000000, 0.000000000000000000, 0.000000000000000000 ) ) ;
#160 = CARTESIAN_POINT ( 'NONE',  ( -7.000000000000000000, 0.000000000000000000, 6.500000000000000000 ) ) ;
#161 = DIRECTION ( 'NONE',  ( -1.000000000000000000, 0.000000000000000000, 0.000000000000000000 ) ) ;
#162 = LINE ( 'NONE', #23, #134 ) ;
#163 = VERTEX_POINT ( 'NONE', #160 ) ;
#164 = DIRECTION ( 'NONE',  ( 0.000000000000000000, 0.000000000000000000, 1.000000000000000000 ) ) ;
#165 = ORIENTED_EDGE ( 'NONE', *, *, #175, .T. ) ;
#166 = ADVANCED_FACE ( 'NONE', ( #27 ), #68, .T. ) ;
#167 = LINE ( 'NONE', #3, #62 ) ;
#168 = ORIENTED_EDGE ( 'NONE', *, *, #250, .F. ) ;
#169 = DATE_AND_TIME ( #36, #86 ) ;
#170 = VECTOR ( 'NONE', #89, 1000.000000000000000 ) ;
#171 = COORDINATED_UNIVERSAL_TIME_OFFSET ( 1, 0, .AHEAD. ) ;
#172 = DIRECTION ( 'NONE',  ( 0.000000000000000000, 0.000000000000000000, 1.000000000000000000 ) ) ;
#173 = APPROVAL_STATUS ( 'not_yet_approved' ) ;
#174 = DIRECTION ( 'NONE',  ( 0.000000000000000000, 0.000000000000000000, 1.000000000000000000 ) ) ;
#175 = EDGE_CURVE ( 'NONE', #217, #91, #167, .T. ) ;
#176 = CARTESIAN_POINT ( 'NONE',  ( 4.000000000000000000, 4.898587196589412829E-16, 6.500000000000000000 ) ) ;
#177 = CIRCLE ( 'NONE', #105, 4.000000000000000000 ) ;
#178 = DIRECTION ( 'NONE',  ( 0.000000000000000000, 0.000000000000000000, 1.000000000000000000 ) ) ;
#179 = DIRECTION ( 'NONE',  ( 1.000000000000000000, 0.000000000000000000, 0.000000000000000000 ) ) ;
#180 = ORIENTED_EDGE ( 'NONE', *, *, #245, .F. ) ;
#181 = CARTESIAN_POINT ( 'NONE',  ( 0.000000000000000000, 0.000000000000000000, 799.9999999999998863 ) ) ;
#182 = ORIENTED_EDGE ( 'NONE', *, *, #101, .T. ) ;
#183 =( NAMED_UNIT ( * ) SI_UNIT ( $, .STERADIAN. ) SOLID_ANGLE_UNIT ( ) );
#184 = ORIENTED_EDGE ( 'NONE', *, *, #44, .T. ) ;
#185 = DIRECTION ( 'NONE',  ( 0.000000000000000000, 0.000000000000000000, 1.000000000000000000 ) ) ;
#186 = CC_DESIGN_PERSON_AND_ORGANIZATION_ASSIGNMENT ( #212, #233, ( #231 ) ) ;
#187 = CALENDAR_DATE ( 2023, 13, 2 ) ;
#188 = SECURITY_CLASSIFICATION_LEVEL ( 'unclassified' ) ;
#189 = PERSON_AND_ORGANIZATION_ROLE ( 'creator' ) ;
#190 = CLOSED_SHELL ( 'NONE', ( #88, #72, #115, #64, #148, #29, #166 ) ) ;
#191 = DIRECTION ( 'NONE',  ( 0.000000000000000000, 0.000000000000000000, 1.000000000000000000 ) ) ;
#192 = ORIENTED_EDGE ( 'NONE', *, *, #250, .T. ) ;
#193 = EDGE_CURVE ( 'NONE', #109, #47, #106, .T. ) ;
#194 = EDGE_LOOP ( 'NONE', ( #215, #180 ) ) ;
#195 = APPROVAL_DATE_TIME ( #125, #73 ) ;
#196 = ORIENTED_EDGE ( 'NONE', *, *, #131, .F. ) ;
#197 = EDGE_LOOP ( 'NONE', ( #220, #66, #165, #153 ) ) ;
#198 = DIRECTION ( 'NONE',  ( -0.000000000000000000, -0.000000000000000000, -1.000000000000000000 ) ) ;
#199 = AXIS2_PLACEMENT_3D ( 'NONE', #219, #164, #48 ) ;
#200 = APPROVAL_ROLE ( '' ) ;
#201 = DIRECTION ( 'NONE',  ( 1.000000000000000000, 0.000000000000000000, 0.000000000000000000 ) ) ;
#202 = CARTESIAN_POINT ( 'NONE',  ( 0.000000000000000000, 0.000000000000000000, 799.9999999999998863 ) ) ;
#203 = PLANE ( 'NONE',  #151 ) ;
#204 = PERSON_AND_ORGANIZATION ( #100, #210 ) ;
#205 = AXIS2_PLACEMENT_3D ( 'NONE', #202, #140, #161 ) ;
#206 = LOCAL_TIME ( 15, 18, 21.00000000000000000, #156 ) ;
#207 = COORDINATED_UNIVERSAL_TIME_OFFSET ( 1, 0, .AHEAD. ) ;
#208 = LINE ( 'NONE', #16, #22 ) ;
#209 = CYLINDRICAL_SURFACE ( 'NONE', #232, 7.000000000000000000 ) ;
#210 = ORGANIZATION ( 'NEURÈENÝ', 'NEURÈENÝ', '' ) ;
#211 = CC_DESIGN_APPROVAL ( #108, ( #5 ) ) ;
#212 = PERSON_AND_ORGANIZATION ( #100, #210 ) ;
#213 = DIRECTION ( 'NONE',  ( 1.000000000000000000, 0.000000000000000000, 0.000000000000000000 ) ) ;
#214 = CIRCLE ( 'NONE', #142, 4.000000000000000000 ) ;
#215 = ORIENTED_EDGE ( 'NONE', *, *, #69, .F. ) ;
#216 = APPROVAL_STATUS ( 'not_yet_approved' ) ;
#217 = VERTEX_POINT ( 'NONE', #242 ) ;
#218 = EDGE_CURVE ( 'NONE', #49, #217, #143, .T. ) ;
#219 = CARTESIAN_POINT ( 'NONE',  ( 0.000000000000000000, 0.000000000000000000, 0.000000000000000000 ) ) ;
#220 = ORIENTED_EDGE ( 'NONE', *, *, #227, .F. ) ;
#221 = PRODUCT_RELATED_PRODUCT_CATEGORY ( 'detail', '', ( #103 ) ) ;
#222 =( GEOMETRIC_REPRESENTATION_CONTEXT ( 3 ) GLOBAL_UNCERTAINTY_ASSIGNED_CONTEXT ( ( #141 ) ) GLOBAL_UNIT_ASSIGNED_CONTEXT ( ( #237, #107, #183 ) ) REPRESENTATION_CONTEXT ( 'NONE', 'WORKASPACE' ) );
#223 = DIRECTION ( 'NONE',  ( -1.000000000000000000, 0.000000000000000000, 0.000000000000000000 ) ) ;
#224 = CYLINDRICAL_SURFACE ( 'NONE', #205, 4.000000000000000000 ) ;
#225 = CARTESIAN_POINT ( 'NONE',  ( 0.000000000000000000, 0.000000000000000000, 0.000000000000000000 ) ) ;
#226 = PERSON_AND_ORGANIZATION_ROLE ( 'classification_officer' ) ;
#227 = EDGE_CURVE ( 'NONE', #49, #149, #162, .T. ) ;
#228 = APPLICATION_CONTEXT ( 'configuration controlled 3d designs of mechanical parts and assemblies' ) ;
#229 = FACE_OUTER_BOUND ( 'NONE', #238, .T. ) ;
#230 = PERSON_AND_ORGANIZATION ( #100, #210 ) ;
#231 = PRODUCT_DEFINITION ( 'NEZNÁMÝ', '', #5, #50 ) ;
#232 = AXIS2_PLACEMENT_3D ( 'NONE', #104, #60, #138 ) ;
#233 = PERSON_AND_ORGANIZATION_ROLE ( 'creator' ) ;
#234 = FACE_OUTER_BOUND ( 'NONE', #90, .T. ) ;
#235 = AXIS2_PLACEMENT_3D ( 'NONE', #130, #113, #223 ) ;
#236 = PRODUCT_DEFINITION_SHAPE ( 'NONE', 'NONE',  #231 ) ;
#237 =( LENGTH_UNIT ( ) NAMED_UNIT ( * ) SI_UNIT ( .MILLI., .METRE. ) );
#238 = EDGE_LOOP ( 'NONE', ( #28, #192, #184, #8 ) ) ;
#239 = PERSON_AND_ORGANIZATION_ROLE ( 'design_owner' ) ;
#240 = ORIENTED_EDGE ( 'NONE', *, *, #175, .F. ) ;
#241 = APPROVAL_PERSON_ORGANIZATION ( #65, #73, #145 ) ;
#242 = CARTESIAN_POINT ( 'NONE',  ( -4.000000000000000000, 0.000000000000000000, 799.9999999999998863 ) ) ;
#243 = ORIENTED_EDGE ( 'NONE', *, *, #245, .T. ) ;
#244 = APPLICATION_CONTEXT ( 'configuration controlled 3d designs of mechanical parts and assemblies' ) ;
#245 = EDGE_CURVE ( 'NONE', #149, #91, #6, .T. ) ;
#246 = CARTESIAN_POINT ( 'NONE',  ( 0.000000000000000000, 0.000000000000000000, 799.9999999999998863 ) ) ;
#247 = FACE_OUTER_BOUND ( 'NONE', #197, .T. ) ;
#248 = AXIS2_PLACEMENT_3D ( 'NONE', #225, #78, #71 ) ;
#249 = AXIS2_PLACEMENT_3D ( 'NONE', #126, #191, #213 ) ;
#250 = EDGE_CURVE ( 'NONE', #1, #47, #9, .T. ) ;
#251 = PERSON_AND_ORGANIZATION ( #100, #210 ) ;
#252 = DIRECTION ( 'NONE',  ( 0.000000000000000000, 0.000000000000000000, 1.000000000000000000 ) ) ;
#253 = MANIFOLD_SOLID_BREP ( 'Pøidat vysunutím3', #190 ) ;
#254 = AXIS2_PLACEMENT_3D ( 'NONE', #135, #15, #114 ) ;
#255 = SECURITY_CLASSIFICATION ( '', '', #188 ) ;
ENDSEC;
END-ISO-10303-21;
