ISO-10303-21;
HEADER;
FILE_DESCRIPTION (( 'STEP AP203' ),
    '1' );
FILE_NAME ('acb2.STEP',
    '2023-02-13T08:42:50',
    ( '' ),
    ( '' ),
    'SwSTEP 2.0',
    'SolidWorks 2019',
    '' );
FILE_SCHEMA (( 'CONFIG_CONTROL_DESIGN' ));
ENDSEC;

DATA;
#1 = CARTESIAN_POINT ( 'NONE',  ( 9.000000000000000000, 1.102182119232617714E-15, 500.0000000000000000 ) ) ;
#2 = DIRECTION ( 'NONE',  ( 1.000000000000000000, 0.000000000000000000, 0.000000000000000000 ) ) ;
#3 = COORDINATED_UNIVERSAL_TIME_OFFSET ( 1, 0, .AHEAD. ) ;
#4 = EDGE_CURVE ( 'NONE', #16, #164, #226, .T. ) ;
#5 = CALENDAR_DATE ( 2023, 13, 2 ) ;
#6 = APPROVAL_DATE_TIME ( #71, #160 ) ;
#7 = CARTESIAN_POINT ( 'NONE',  ( 0.000000000000000000, 0.000000000000000000, 0.000000000000000000 ) ) ;
#8 = CIRCLE ( 'NONE', #142, 9.000000000000000000 ) ;
#9 = EDGE_CURVE ( 'NONE', #180, #144, #130, .T. ) ;
#10 = LOCAL_TIME ( 9, 42, 50.00000000000000000, #119 ) ;
#11 = CARTESIAN_POINT ( 'NONE',  ( 0.000000000000000000, 0.000000000000000000, 7.000000000000000000 ) ) ;
#12 = CARTESIAN_POINT ( 'NONE',  ( 0.000000000000000000, 0.000000000000000000, 0.000000000000000000 ) ) ;
#13 = DIRECTION ( 'NONE',  ( -0.000000000000000000, -0.000000000000000000, -1.000000000000000000 ) ) ;
#14 = DIRECTION ( 'NONE',  ( 0.000000000000000000, 0.000000000000000000, 1.000000000000000000 ) ) ;
#15 = DIRECTION ( 'NONE',  ( 1.000000000000000000, 0.000000000000000000, 0.000000000000000000 ) ) ;
#16 = VERTEX_POINT ( 'NONE', #1 ) ;
#17 = AXIS2_PLACEMENT_3D ( 'NONE', #78, #156, #237 ) ;
#18 = CARTESIAN_POINT ( 'NONE',  ( 0.000000000000000000, 0.000000000000000000, 0.000000000000000000 ) ) ;
#19 = SHAPE_DEFINITION_REPRESENTATION ( #106, #166 ) ;
#20 = APPROVAL ( #195, 'NEURÈENÝ' ) ;
#21 = VERTEX_POINT ( 'NONE', #184 ) ;
#22 = AXIS2_PLACEMENT_3D ( 'NONE', #7, #37, #15 ) ;
#23 = VECTOR ( 'NONE', #135, 1000.000000000000000 ) ;
#24 = VERTEX_POINT ( 'NONE', #69 ) ;
#25 = CC_DESIGN_APPROVAL ( #20, ( #72 ) ) ;
#26 = PERSON_AND_ORGANIZATION_ROLE ( 'creator' ) ;
#27 = DATE_AND_TIME ( #31, #67 ) ;
#28 = ORIENTED_EDGE ( 'NONE', *, *, #165, .T. ) ;
#29 = PERSON_AND_ORGANIZATION_ROLE ( 'design_supplier' ) ;
#30 = CARTESIAN_POINT ( 'NONE',  ( 0.000000000000000000, 0.000000000000000000, 7.000000000000000000 ) ) ;
#31 = CALENDAR_DATE ( 2023, 13, 2 ) ;
#32 = EDGE_CURVE ( 'NONE', #179, #21, #48, .T. ) ;
#33 = APPROVAL_ROLE ( '' ) ;
#34 = CIRCLE ( 'NONE', #243, 13.00000000000000178 ) ;
#35 = CIRCLE ( 'NONE', #22, 13.00000000000000178 ) ;
#36 = CARTESIAN_POINT ( 'NONE',  ( 13.00000000000000178, 1.592040838891559293E-15, 7.000000000000000000 ) ) ;
#37 = DIRECTION ( 'NONE',  ( 0.000000000000000000, 0.000000000000000000, 1.000000000000000000 ) ) ;
#38 = CARTESIAN_POINT ( 'NONE',  ( 0.000000000000000000, 0.000000000000000000, 7.000000000000000000 ) ) ;
#39 = DIRECTION ( 'NONE',  ( 1.000000000000000000, 0.000000000000000000, 0.000000000000000000 ) ) ;
#40 = AXIS2_PLACEMENT_3D ( 'NONE', #18, #139, #55 ) ;
#41 = PLANE ( 'NONE',  #244 ) ;
#42 = PRODUCT_DEFINITION ( 'NEZNÁMÝ', '', #54, #190 ) ;
#43 = ORIENTED_EDGE ( 'NONE', *, *, #9, .F. ) ;
#44 = CARTESIAN_POINT ( 'NONE',  ( 0.000000000000000000, 0.000000000000000000, 7.000000000000000000 ) ) ;
#45 = APPLICATION_CONTEXT ( 'configuration controlled 3d designs of mechanical parts and assemblies' ) ;
#46 = CARTESIAN_POINT ( 'NONE',  ( 9.000000000000000000, 1.102182119232617714E-15, 500.0000000000000000 ) ) ;
#47 = AXIS2_PLACEMENT_3D ( 'NONE', #11, #73, #152 ) ;
#48 = LINE ( 'NONE', #51, #230 ) ;
#49 = COORDINATED_UNIVERSAL_TIME_OFFSET ( 1, 0, .AHEAD. ) ;
#50 = APPROVAL_ROLE ( '' ) ;
#51 = CARTESIAN_POINT ( 'NONE',  ( -13.00000000000000178, 0.000000000000000000, 7.000000000000000000 ) ) ;
#52 = DIRECTION ( 'NONE',  ( 0.000000000000000000, 0.000000000000000000, 1.000000000000000000 ) ) ;
#53 = CARTESIAN_POINT ( 'NONE',  ( 0.000000000000000000, 0.000000000000000000, 500.0000000000000000 ) ) ;
#54 = PRODUCT_DEFINITION_FORMATION_WITH_SPECIFIED_SOURCE ( 'LIBOVOLNÝ', '', #178, .NOT_KNOWN. ) ;
#55 = DIRECTION ( 'NONE',  ( 1.000000000000000000, 0.000000000000000000, 0.000000000000000000 ) ) ;
#56 = DIRECTION ( 'NONE',  ( 0.000000000000000000, 0.000000000000000000, 1.000000000000000000 ) ) ;
#57 = FACE_OUTER_BOUND ( 'NONE', #90, .T. ) ;
#58 = ORIENTED_EDGE ( 'NONE', *, *, #136, .T. ) ;
#59 = PERSON ( 'NEURÈENÝ', 'NEURÈENÝ', 'NEURÈENÝ', ('NEURÈENÝ'), ('NEURÈENÝ'), ('NEURÈENÝ') ) ;
#60 = CC_DESIGN_PERSON_AND_ORGANIZATION_ASSIGNMENT ( #227, #29, ( #54 ) ) ;
#61 = ORGANIZATION ( 'NEURÈENÝ', 'NEURÈENÝ', '' ) ;
#62 = ORIENTED_EDGE ( 'NONE', *, *, #151, .F. ) ;
#63 = EDGE_CURVE ( 'NONE', #179, #124, #225, .T. ) ;
#64 = CC_DESIGN_DATE_AND_TIME_ASSIGNMENT ( #103, #122, ( #72 ) ) ;
#65 = CARTESIAN_POINT ( 'NONE',  ( -9.000000000000000000, 0.000000000000000000, 500.0000000000000000 ) ) ;
#66 = PERSON_AND_ORGANIZATION_ROLE ( 'design_owner' ) ;
#67 = LOCAL_TIME ( 9, 42, 50.00000000000000000, #187 ) ;
#68 = DIRECTION ( 'NONE',  ( 0.000000000000000000, 0.000000000000000000, 1.000000000000000000 ) ) ;
#69 = CARTESIAN_POINT ( 'NONE',  ( 13.00000000000000178, 1.592040838891559293E-15, 0.000000000000000000 ) ) ;
#70 = APPROVAL_STATUS ( 'not_yet_approved' ) ;
#71 = DATE_AND_TIME ( #133, #101 ) ;
#72 = SECURITY_CLASSIFICATION ( '', '', #116 ) ;
#73 = DIRECTION ( 'NONE',  ( -0.000000000000000000, -0.000000000000000000, -1.000000000000000000 ) ) ;
#74 = DIRECTION ( 'NONE',  ( 1.000000000000000000, 0.000000000000000000, 0.000000000000000000 ) ) ;
#75 = CALENDAR_DATE ( 2023, 13, 2 ) ;
#76 = DIRECTION ( 'NONE',  ( -1.000000000000000000, 0.000000000000000000, 0.000000000000000000 ) ) ;
#77 = EDGE_CURVE ( 'NONE', #180, #16, #252, .T. ) ;
#78 = CARTESIAN_POINT ( 'NONE',  ( 0.000000000000000000, 0.000000000000000000, 7.000000000000000000 ) ) ;
#79 = ORIENTED_EDGE ( 'NONE', *, *, #202, .T. ) ;
#80 = CARTESIAN_POINT ( 'NONE',  ( 0.000000000000000000, 0.000000000000000000, 0.000000000000000000 ) ) ;
#81 = ADVANCED_FACE ( 'NONE', ( #97 ), #217, .T. ) ;
#82 = ORIENTED_EDGE ( 'NONE', *, *, #202, .F. ) ;
#83 = ORIENTED_EDGE ( 'NONE', *, *, #140, .F. ) ;
#84 = APPLICATION_CONTEXT ( 'configuration controlled 3d designs of mechanical parts and assemblies' ) ;
#85 = DIRECTION ( 'NONE',  ( -0.000000000000000000, -0.000000000000000000, -1.000000000000000000 ) ) ;
#86 = CLOSED_SHELL ( 'NONE', ( #224, #210, #114, #239, #197, #81, #126 ) ) ;
#87 = DIRECTION ( 'NONE',  ( 0.000000000000000000, 0.000000000000000000, 1.000000000000000000 ) ) ;
#88 = CIRCLE ( 'NONE', #193, 9.000000000000000000 ) ;
#89 =( LENGTH_UNIT ( ) NAMED_UNIT ( * ) SI_UNIT ( .MILLI., .METRE. ) );
#90 = EDGE_LOOP ( 'NONE', ( #145, #58 ) ) ;
#91 = APPLICATION_PROTOCOL_DEFINITION ( 'international standard', 'config_control_design', 1994, #84 ) ;
#92 = FACE_OUTER_BOUND ( 'NONE', #174, .T. ) ;
#93 = APPLICATION_PROTOCOL_DEFINITION ( 'international standard', 'config_control_design', 1994, #45 ) ;
#94 = CC_DESIGN_PERSON_AND_ORGANIZATION_ASSIGNMENT ( #113, #189, ( #72 ) ) ;
#95 = FACE_OUTER_BOUND ( 'NONE', #255, .T. ) ;
#96 = CC_DESIGN_DATE_AND_TIME_ASSIGNMENT ( #27, #205, ( #42 ) ) ;
#97 = FACE_OUTER_BOUND ( 'NONE', #172, .T. ) ;
#98 = APPROVAL_DATE_TIME ( #199, #20 ) ;
#99 = FACE_OUTER_BOUND ( 'NONE', #183, .T. ) ;
#100 = ORIENTED_EDGE ( 'NONE', *, *, #4, .F. ) ;
#101 = LOCAL_TIME ( 9, 42, 50.00000000000000000, #3 ) ;
#102 = CYLINDRICAL_SURFACE ( 'NONE', #109, 13.00000000000000178 ) ;
#103 = DATE_AND_TIME ( #5, #182 ) ;
#104 = ORIENTED_EDGE ( 'NONE', *, *, #251, .F. ) ;
#105 = CC_DESIGN_APPROVAL ( #160, ( #54 ) ) ;
#106 = PRODUCT_DEFINITION_SHAPE ( 'NONE', 'NONE',  #42 ) ;
#107 = EDGE_LOOP ( 'NONE', ( #203, #82 ) ) ;
#108 = ORIENTED_EDGE ( 'NONE', *, *, #77, .F. ) ;
#109 = AXIS2_PLACEMENT_3D ( 'NONE', #38, #13, #76 ) ;
#110 = ORIENTED_EDGE ( 'NONE', *, *, #63, .F. ) ;
#111 = DIRECTION ( 'NONE',  ( -0.000000000000000000, -0.000000000000000000, -1.000000000000000000 ) ) ;
#112 = PERSON_AND_ORGANIZATION ( #59, #61 ) ;
#113 = PERSON_AND_ORGANIZATION ( #59, #61 ) ;
#114 = ADVANCED_FACE ( 'NONE', ( #233 ), #102, .T. ) ;
#115 = DATE_AND_TIME ( #131, #161 ) ;
#116 = SECURITY_CLASSIFICATION_LEVEL ( 'unclassified' ) ;
#117 = CC_DESIGN_PERSON_AND_ORGANIZATION_ASSIGNMENT ( #167, #147, ( #54 ) ) ;
#118 = DIRECTION ( 'NONE',  ( 1.000000000000000000, 0.000000000000000000, -0.000000000000000000 ) ) ;
#119 = COORDINATED_UNIVERSAL_TIME_OFFSET ( 1, 0, .AHEAD. ) ;
#120 = APPROVAL_PERSON_ORGANIZATION ( #112, #160, #50 ) ;
#121 = CYLINDRICAL_SURFACE ( 'NONE', #47, 13.00000000000000178 ) ;
#122 = DATE_TIME_ROLE ( 'classification_date' ) ;
#123 = PLANE ( 'NONE',  #150 ) ;
#124 = VERTEX_POINT ( 'NONE', #169 ) ;
#125 = DIRECTION ( 'NONE',  ( 0.000000000000000000, 0.000000000000000000, 1.000000000000000000 ) ) ;
#126 = ADVANCED_FACE ( 'NONE', ( #57 ), #123, .T. ) ;
#127 = PRODUCT_RELATED_PRODUCT_CATEGORY ( 'detail', '', ( #178 ) ) ;
#128 = EDGE_CURVE ( 'NONE', #124, #179, #34, .T. ) ;
#129 = EDGE_LOOP ( 'NONE', ( #104, #62 ) ) ;
#130 = LINE ( 'NONE', #65, #154 ) ;
#131 = CALENDAR_DATE ( 2023, 13, 2 ) ;
#132 = AXIS2_PLACEMENT_3D ( 'NONE', #238, #216, #245 ) ;
#133 = CALENDAR_DATE ( 2023, 13, 2 ) ;
#134 = APPROVAL_DATE_TIME ( #115, #246 ) ;
#135 = DIRECTION ( 'NONE',  ( -0.000000000000000000, -0.000000000000000000, -1.000000000000000000 ) ) ;
#136 = EDGE_CURVE ( 'NONE', #16, #180, #8, .T. ) ;
#137 = DIRECTION ( 'NONE',  ( -1.000000000000000000, 0.000000000000000000, 0.000000000000000000 ) ) ;
#138 = CARTESIAN_POINT ( 'NONE',  ( -13.00000000000000178, 0.000000000000000000, 7.000000000000000000 ) ) ;
#139 = DIRECTION ( 'NONE',  ( 0.000000000000000000, 0.000000000000000000, 1.000000000000000000 ) ) ;
#140 = EDGE_CURVE ( 'NONE', #124, #24, #198, .T. ) ;
#141 = DIRECTION ( 'NONE',  ( 0.000000000000000000, 0.000000000000000000, 1.000000000000000000 ) ) ;
#142 = AXIS2_PLACEMENT_3D ( 'NONE', #201, #56, #248 ) ;
#143 = AXIS2_PLACEMENT_3D ( 'NONE', #53, #194, #137 ) ;
#144 = VERTEX_POINT ( 'NONE', #175 ) ;
#145 = ORIENTED_EDGE ( 'NONE', *, *, #77, .T. ) ;
#146 = CIRCLE ( 'NONE', #40, 13.00000000000000178 ) ;
#147 = PERSON_AND_ORGANIZATION_ROLE ( 'creator' ) ;
#148 = APPROVAL_ROLE ( '' ) ;
#149 = UNCERTAINTY_MEASURE_WITH_UNIT (LENGTH_MEASURE( 1.000000000000000082E-05 ), #89, 'distance_accuracy_value', 'NONE');
#150 = AXIS2_PLACEMENT_3D ( 'NONE', #250, #125, #118 ) ;
#151 = EDGE_CURVE ( 'NONE', #164, #144, #168, .T. ) ;
#152 = DIRECTION ( 'NONE',  ( -1.000000000000000000, 0.000000000000000000, 0.000000000000000000 ) ) ;
#153 = DIRECTION ( 'NONE',  ( 0.000000000000000000, 0.000000000000000000, 1.000000000000000000 ) ) ;
#154 = VECTOR ( 'NONE', #111, 1000.000000000000000 ) ;
#155 = DIRECTION ( 'NONE',  ( 1.000000000000000000, 0.000000000000000000, 0.000000000000000000 ) ) ;
#156 = DIRECTION ( 'NONE',  ( 0.000000000000000000, 0.000000000000000000, 1.000000000000000000 ) ) ;
#157 = ORIENTED_EDGE ( 'NONE', *, *, #128, .T. ) ;
#158 = MECHANICAL_CONTEXT ( 'NONE', #84, 'mechanical' ) ;
#159 = CARTESIAN_POINT ( 'NONE',  ( 0.000000000000000000, 0.000000000000000000, 500.0000000000000000 ) ) ;
#160 = APPROVAL ( #70, 'NEURÈENÝ' ) ;
#161 = LOCAL_TIME ( 9, 42, 50.00000000000000000, #49 ) ;
#162 = MANIFOLD_SOLID_BREP ( 'Pøidat vysunutím3', #86 ) ;
#163 = ORIENTED_EDGE ( 'NONE', *, *, #151, .T. ) ;
#164 = VERTEX_POINT ( 'NONE', #234 ) ;
#165 = EDGE_CURVE ( 'NONE', #21, #24, #146, .T. ) ;
#166 = ADVANCED_BREP_SHAPE_REPRESENTATION ( 'acb2', ( #162, #253 ), #177 ) ;
#167 = PERSON_AND_ORGANIZATION ( #59, #61 ) ;
#168 = CIRCLE ( 'NONE', #176, 9.000000000000000000 ) ;
#169 = CARTESIAN_POINT ( 'NONE',  ( 13.00000000000000178, 1.592040838891559293E-15, 7.000000000000000000 ) ) ;
#170 = APPROVAL_PERSON_ORGANIZATION ( #220, #20, #33 ) ;
#171 = DIRECTION ( 'NONE',  ( 1.000000000000000000, 0.000000000000000000, 0.000000000000000000 ) ) ;
#172 = EDGE_LOOP ( 'NONE', ( #100, #108, #200, #222 ) ) ;
#173 = CARTESIAN_POINT ( 'NONE',  ( -9.000000000000000000, 0.000000000000000000, 500.0000000000000000 ) ) ;
#174 = EDGE_LOOP ( 'NONE', ( #223, #204, #79, #218 ) ) ;
#175 = CARTESIAN_POINT ( 'NONE',  ( -9.000000000000000000, 0.000000000000000000, 7.000000000000000000 ) ) ;
#176 = AXIS2_PLACEMENT_3D ( 'NONE', #247, #141, #155 ) ;
#177 =( GEOMETRIC_REPRESENTATION_CONTEXT ( 3 ) GLOBAL_UNCERTAINTY_ASSIGNED_CONTEXT ( ( #149 ) ) GLOBAL_UNIT_ASSIGNED_CONTEXT ( ( #89, #228, #209 ) ) REPRESENTATION_CONTEXT ( 'NONE', 'WORKASPACE' ) );
#178 = PRODUCT ( 'acb2', 'acb2', '', ( #158 ) ) ;
#179 = VERTEX_POINT ( 'NONE', #138 ) ;
#180 = VERTEX_POINT ( 'NONE', #173 ) ;
#181 = ORIENTED_EDGE ( 'NONE', *, *, #4, .T. ) ;
#182 = LOCAL_TIME ( 9, 42, 50.00000000000000000, #186 ) ;
#183 = EDGE_LOOP ( 'NONE', ( #211, #157 ) ) ;
#184 = CARTESIAN_POINT ( 'NONE',  ( -13.00000000000000178, 0.000000000000000000, 0.000000000000000000 ) ) ;
#185 = DIRECTION ( 'NONE',  ( 1.000000000000000000, 0.000000000000000000, 0.000000000000000000 ) ) ;
#186 = COORDINATED_UNIVERSAL_TIME_OFFSET ( 1, 0, .AHEAD. ) ;
#187 = COORDINATED_UNIVERSAL_TIME_OFFSET ( 1, 0, .AHEAD. ) ;
#188 = DIRECTION ( 'NONE',  ( 0.000000000000000000, 0.000000000000000000, 1.000000000000000000 ) ) ;
#189 = PERSON_AND_ORGANIZATION_ROLE ( 'classification_officer' ) ;
#190 = DESIGN_CONTEXT ( 'detailed design', #45, 'design' ) ;
#191 = CC_DESIGN_PERSON_AND_ORGANIZATION_ASSIGNMENT ( #207, #66, ( #178 ) ) ;
#192 = DIRECTION ( 'NONE',  ( 1.000000000000000000, 0.000000000000000000, -0.000000000000000000 ) ) ;
#193 = AXIS2_PLACEMENT_3D ( 'NONE', #44, #68, #2 ) ;
#194 = DIRECTION ( 'NONE',  ( -0.000000000000000000, -0.000000000000000000, -1.000000000000000000 ) ) ;
#195 = APPROVAL_STATUS ( 'not_yet_approved' ) ;
#196 = ORIENTED_EDGE ( 'NONE', *, *, #136, .F. ) ;
#197 = ADVANCED_FACE ( 'NONE', ( #212 ), #41, .F. ) ;
#198 = LINE ( 'NONE', #36, #23 ) ;
#199 = DATE_AND_TIME ( #75, #10 ) ;
#200 = ORIENTED_EDGE ( 'NONE', *, *, #9, .T. ) ;
#201 = CARTESIAN_POINT ( 'NONE',  ( 0.000000000000000000, 0.000000000000000000, 500.0000000000000000 ) ) ;
#202 = EDGE_CURVE ( 'NONE', #24, #21, #35, .T. ) ;
#203 = ORIENTED_EDGE ( 'NONE', *, *, #165, .F. ) ;
#204 = ORIENTED_EDGE ( 'NONE', *, *, #140, .T. ) ;
#205 = DATE_TIME_ROLE ( 'creation_date' ) ;
#206 = CC_DESIGN_PERSON_AND_ORGANIZATION_ASSIGNMENT ( #229, #26, ( #42 ) ) ;
#207 = PERSON_AND_ORGANIZATION ( #59, #61 ) ;
#208 = AXIS2_PLACEMENT_3D ( 'NONE', #30, #87, #185 ) ;
#209 =( NAMED_UNIT ( * ) SI_UNIT ( $, .STERADIAN. ) SOLID_ANGLE_UNIT ( ) );
#210 = ADVANCED_FACE ( 'NONE', ( #92 ), #121, .T. ) ;
#211 = ORIENTED_EDGE ( 'NONE', *, *, #63, .T. ) ;
#212 = FACE_OUTER_BOUND ( 'NONE', #107, .T. ) ;
#213 = VECTOR ( 'NONE', #85, 1000.000000000000000 ) ;
#214 = FACE_BOUND ( 'NONE', #129, .T. ) ;
#215 = APPROVAL_PERSON_ORGANIZATION ( #240, #246, #148 ) ;
#216 = DIRECTION ( 'NONE',  ( -0.000000000000000000, -0.000000000000000000, -1.000000000000000000 ) ) ;
#217 = CYLINDRICAL_SURFACE ( 'NONE', #132, 9.000000000000000000 ) ;
#218 = ORIENTED_EDGE ( 'NONE', *, *, #32, .F. ) ;
#219 = CARTESIAN_POINT ( 'NONE',  ( 0.000000000000000000, 0.000000000000000000, 7.000000000000000000 ) ) ;
#220 = PERSON_AND_ORGANIZATION ( #59, #61 ) ;
#221 = CC_DESIGN_APPROVAL ( #246, ( #42 ) ) ;
#222 = ORIENTED_EDGE ( 'NONE', *, *, #251, .T. ) ;
#223 = ORIENTED_EDGE ( 'NONE', *, *, #128, .F. ) ;
#224 = ADVANCED_FACE ( 'NONE', ( #95 ), #231, .T. ) ;
#225 = CIRCLE ( 'NONE', #208, 13.00000000000000178 ) ;
#226 = LINE ( 'NONE', #46, #213 ) ;
#227 = PERSON_AND_ORGANIZATION ( #59, #61 ) ;
#228 =( NAMED_UNIT ( * ) PLANE_ANGLE_UNIT ( ) SI_UNIT ( $, .RADIAN. ) );
#229 = PERSON_AND_ORGANIZATION ( #59, #61 ) ;
#230 = VECTOR ( 'NONE', #242, 1000.000000000000000 ) ;
#231 = CYLINDRICAL_SURFACE ( 'NONE', #143, 9.000000000000000000 ) ;
#232 = APPROVAL_STATUS ( 'not_yet_approved' ) ;
#233 = FACE_OUTER_BOUND ( 'NONE', #236, .T. ) ;
#234 = CARTESIAN_POINT ( 'NONE',  ( 9.000000000000000000, 1.102182119232617714E-15, 7.000000000000000000 ) ) ;
#235 = CC_DESIGN_SECURITY_CLASSIFICATION ( #72, ( #54 ) ) ;
#236 = EDGE_LOOP ( 'NONE', ( #83, #110, #254, #28 ) ) ;
#237 = DIRECTION ( 'NONE',  ( 1.000000000000000000, 0.000000000000000000, -0.000000000000000000 ) ) ;
#238 = CARTESIAN_POINT ( 'NONE',  ( 0.000000000000000000, 0.000000000000000000, 500.0000000000000000 ) ) ;
#239 = ADVANCED_FACE ( 'NONE', ( #214, #99 ), #249, .T. ) ;
#240 = PERSON_AND_ORGANIZATION ( #59, #61 ) ;
#241 = AXIS2_PLACEMENT_3D ( 'NONE', #159, #153, #74 ) ;
#242 = DIRECTION ( 'NONE',  ( -0.000000000000000000, -0.000000000000000000, -1.000000000000000000 ) ) ;
#243 = AXIS2_PLACEMENT_3D ( 'NONE', #219, #52, #171 ) ;
#244 = AXIS2_PLACEMENT_3D ( 'NONE', #80, #188, #192 ) ;
#245 = DIRECTION ( 'NONE',  ( -1.000000000000000000, 0.000000000000000000, 0.000000000000000000 ) ) ;
#246 = APPROVAL ( #232, 'NEURÈENÝ' ) ;
#247 = CARTESIAN_POINT ( 'NONE',  ( 0.000000000000000000, 0.000000000000000000, 7.000000000000000000 ) ) ;
#248 = DIRECTION ( 'NONE',  ( 1.000000000000000000, 0.000000000000000000, 0.000000000000000000 ) ) ;
#249 = PLANE ( 'NONE',  #17 ) ;
#250 = CARTESIAN_POINT ( 'NONE',  ( 0.000000000000000000, 0.000000000000000000, 500.0000000000000000 ) ) ;
#251 = EDGE_CURVE ( 'NONE', #144, #164, #88, .T. ) ;
#252 = CIRCLE ( 'NONE', #241, 9.000000000000000000 ) ;
#253 = AXIS2_PLACEMENT_3D ( 'NONE', #12, #14, #39 ) ;
#254 = ORIENTED_EDGE ( 'NONE', *, *, #32, .T. ) ;
#255 = EDGE_LOOP ( 'NONE', ( #196, #181, #163, #43 ) ) ;
ENDSEC;
END-ISO-10303-21;
