ISO-10303-21;
HEADER;
FILE_DESCRIPTION (( 'STEP AP203' ),
    '1' );
FILE_NAME ('cf54.STEP',
    '2023-02-13T16:52:59',
    ( '' ),
    ( '' ),
    'SwSTEP 2.0',
    'SolidWorks 2019',
    '' );
FILE_SCHEMA (( 'CONFIG_CONTROL_DESIGN' ));
ENDSEC;

DATA;
#1 = APPROVAL ( #43, 'NEURÈENÝ' ) ;
#2 = CALENDAR_DATE ( 2023, 13, 2 ) ;
#3 = DIRECTION ( 'NONE',  ( 1.000000000000000000, 0.000000000000000000, 0.000000000000000000 ) ) ;
#4 = CALENDAR_DATE ( 2023, 13, 2 ) ;
#5 = EDGE_CURVE ( 'NONE', #87, #57, #128, .T. ) ;
#6 = ORIENTED_EDGE ( 'NONE', *, *, #159, .F. ) ;
#7 = EDGE_CURVE ( 'NONE', #23, #130, #53, .T. ) ;
#8 = DIRECTION ( 'NONE',  ( -1.000000000000000000, 0.000000000000000000, 0.000000000000000000 ) ) ;
#9 = ORIENTED_EDGE ( 'NONE', *, *, #142, .F. ) ;
#10 = APPLICATION_CONTEXT ( 'configuration controlled 3d designs of mechanical parts and assemblies' ) ;
#11 = PERSON_AND_ORGANIZATION ( #86, #203 ) ;
#12 =( GEOMETRIC_REPRESENTATION_CONTEXT ( 3 ) GLOBAL_UNCERTAINTY_ASSIGNED_CONTEXT ( ( #42 ) ) GLOBAL_UNIT_ASSIGNED_CONTEXT ( ( #44, #222, #82 ) ) REPRESENTATION_CONTEXT ( 'NONE', 'WORKASPACE' ) );
#13 = CARTESIAN_POINT ( 'NONE',  ( -3.000000000000000444, 0.000000000000000000, 0.000000000000000000 ) ) ;
#14 = EDGE_CURVE ( 'NONE', #141, #204, #79, .T. ) ;
#15 = DATE_AND_TIME ( #92, #99 ) ;
#16 = DIRECTION ( 'NONE',  ( -1.000000000000000000, 0.000000000000000000, 0.000000000000000000 ) ) ;
#17 = LINE ( 'NONE', #245, #73 ) ;
#18 = VERTEX_POINT ( 'NONE', #241 ) ;
#19 = MECHANICAL_CONTEXT ( 'NONE', #121, 'mechanical' ) ;
#20 = APPLICATION_PROTOCOL_DEFINITION ( 'international standard', 'config_control_design', 1994, #10 ) ;
#21 = AXIS2_PLACEMENT_3D ( 'NONE', #108, #164, #244 ) ;
#22 = APPLICATION_PROTOCOL_DEFINITION ( 'international standard', 'config_control_design', 1994, #121 ) ;
#23 = VERTEX_POINT ( 'NONE', #78 ) ;
#24 = CALENDAR_DATE ( 2023, 13, 2 ) ;
#25 = AXIS2_PLACEMENT_3D ( 'NONE', #45, #112, #188 ) ;
#26 = EDGE_LOOP ( 'NONE', ( #113, #76, #227, #185 ) ) ;
#27 = CC_DESIGN_DATE_AND_TIME_ASSIGNMENT ( #15, #143, ( #178 ) ) ;
#28 = DIRECTION ( 'NONE',  ( 0.000000000000000000, 0.000000000000000000, 1.000000000000000000 ) ) ;
#29 = EDGE_LOOP ( 'NONE', ( #93, #182 ) ) ;
#30 = CIRCLE ( 'NONE', #64, 1.600000000000000089 ) ;
#31 = CYLINDRICAL_SURFACE ( 'NONE', #80, 1.600000000000000089 ) ;
#32 = PRODUCT_DEFINITION_FORMATION_WITH_SPECIFIED_SOURCE ( 'LIBOVOLNÝ', '', #251, .NOT_KNOWN. ) ;
#33 = ADVANCED_FACE ( 'NONE', ( #151 ), #179, .T. ) ;
#34 = ORIENTED_EDGE ( 'NONE', *, *, #159, .T. ) ;
#35 = COORDINATED_UNIVERSAL_TIME_OFFSET ( 1, 0, .AHEAD. ) ;
#36 = CARTESIAN_POINT ( 'NONE',  ( 0.000000000000000000, 0.000000000000000000, 200.0000000000000000 ) ) ;
#37 = CARTESIAN_POINT ( 'NONE',  ( 0.000000000000000000, 0.000000000000000000, 3.000000000000000000 ) ) ;
#38 = ORIENTED_EDGE ( 'NONE', *, *, #61, .F. ) ;
#39 = CARTESIAN_POINT ( 'NONE',  ( -3.000000000000000444, 0.000000000000000000, 3.000000000000000000 ) ) ;
#40 = SECURITY_CLASSIFICATION_LEVEL ( 'unclassified' ) ;
#41 = CYLINDRICAL_SURFACE ( 'NONE', #100, 3.000000000000000444 ) ;
#42 = UNCERTAINTY_MEASURE_WITH_UNIT (LENGTH_MEASURE( 1.000000000000000082E-05 ), #44, 'distance_accuracy_value', 'NONE');
#43 = APPROVAL_STATUS ( 'not_yet_approved' ) ;
#44 =( LENGTH_UNIT ( ) NAMED_UNIT ( * ) SI_UNIT ( .MILLI., .METRE. ) );
#45 = CARTESIAN_POINT ( 'NONE',  ( 0.000000000000000000, 0.000000000000000000, 0.000000000000000000 ) ) ;
#46 = VECTOR ( 'NONE', #169, 1000.000000000000000 ) ;
#47 = EDGE_CURVE ( 'NONE', #18, #187, #255, .T. ) ;
#48 = AXIS2_PLACEMENT_3D ( 'NONE', #246, #117, #8 ) ;
#49 = EDGE_LOOP ( 'NONE', ( #192, #34, #129, #115 ) ) ;
#50 = EDGE_LOOP ( 'NONE', ( #9, #90 ) ) ;
#51 = CC_DESIGN_APPROVAL ( #1, ( #178 ) ) ;
#52 = APPROVAL_ROLE ( '' ) ;
#53 = CIRCLE ( 'NONE', #193, 3.000000000000000444 ) ;
#54 = ORIENTED_EDGE ( 'NONE', *, *, #47, .F. ) ;
#55 = DIRECTION ( 'NONE',  ( 1.000000000000000000, 0.000000000000000000, 0.000000000000000000 ) ) ;
#56 = PERSON_AND_ORGANIZATION ( #86, #203 ) ;
#57 = VERTEX_POINT ( 'NONE', #65 ) ;
#58 = EDGE_CURVE ( 'NONE', #57, #87, #236, .T. ) ;
#59 = CALENDAR_DATE ( 2023, 13, 2 ) ;
#60 = CARTESIAN_POINT ( 'NONE',  ( -1.600000000000000089, 0.000000000000000000, 3.000000000000000000 ) ) ;
#61 = EDGE_CURVE ( 'NONE', #187, #23, #183, .T. ) ;
#62 = LOCAL_TIME ( 17, 52, 59.00000000000000000, #231 ) ;
#63 = DIRECTION ( 'NONE',  ( 1.000000000000000000, 0.000000000000000000, -0.000000000000000000 ) ) ;
#64 = AXIS2_PLACEMENT_3D ( 'NONE', #213, #96, #171 ) ;
#65 = CARTESIAN_POINT ( 'NONE',  ( 1.600000000000000089, 1.959434878635765230E-16, 3.000000000000000000 ) ) ;
#66 = AXIS2_PLACEMENT_3D ( 'NONE', #234, #190, #120 ) ;
#67 = APPROVAL_DATE_TIME ( #157, #131 ) ;
#68 = VECTOR ( 'NONE', #161, 1000.000000000000000 ) ;
#69 = CARTESIAN_POINT ( 'NONE',  ( 0.000000000000000000, 0.000000000000000000, 0.000000000000000000 ) ) ;
#70 = PERSON_AND_ORGANIZATION_ROLE ( 'classification_officer' ) ;
#71 = CARTESIAN_POINT ( 'NONE',  ( 0.000000000000000000, 0.000000000000000000, 0.000000000000000000 ) ) ;
#72 = EDGE_LOOP ( 'NONE', ( #38, #54, #162, #174 ) ) ;
#73 = VECTOR ( 'NONE', #91, 1000.000000000000000 ) ;
#74 = CARTESIAN_POINT ( 'NONE',  ( 1.600000000000000089, 1.959434878635765230E-16, 200.0000000000000000 ) ) ;
#75 = ADVANCED_FACE ( 'NONE', ( #202 ), #31, .T. ) ;
#76 = ORIENTED_EDGE ( 'NONE', *, *, #61, .T. ) ;
#77 = APPROVAL_PERSON_ORGANIZATION ( #177, #131, #221 ) ;
#78 = CARTESIAN_POINT ( 'NONE',  ( 3.000000000000000444, 3.673940397442060361E-16, 0.000000000000000000 ) ) ;
#79 = CIRCLE ( 'NONE', #116, 1.600000000000000089 ) ;
#80 = AXIS2_PLACEMENT_3D ( 'NONE', #107, #186, #89 ) ;
#81 = DIRECTION ( 'NONE',  ( 1.000000000000000000, 0.000000000000000000, 0.000000000000000000 ) ) ;
#82 =( NAMED_UNIT ( * ) SI_UNIT ( $, .STERADIAN. ) SOLID_ANGLE_UNIT ( ) );
#83 = PRODUCT_DEFINITION ( 'NEZNÁMÝ', '', #32, #195 ) ;
#84 = DATE_AND_TIME ( #4, #139 ) ;
#85 = ADVANCED_FACE ( 'NONE', ( #163 ), #41, .T. ) ;
#86 = PERSON ( 'NEURÈENÝ', 'NEURÈENÝ', 'NEURÈENÝ', ('NEURÈENÝ'), ('NEURÈENÝ'), ('NEURÈENÝ') ) ;
#87 = VERTEX_POINT ( 'NONE', #60 ) ;
#88 = AXIS2_PLACEMENT_3D ( 'NONE', #124, #218, #180 ) ;
#89 = DIRECTION ( 'NONE',  ( -1.000000000000000000, 0.000000000000000000, 0.000000000000000000 ) ) ;
#90 = ORIENTED_EDGE ( 'NONE', *, *, #7, .F. ) ;
#91 = DIRECTION ( 'NONE',  ( -0.000000000000000000, -0.000000000000000000, -1.000000000000000000 ) ) ;
#92 = CALENDAR_DATE ( 2023, 13, 2 ) ;
#93 = ORIENTED_EDGE ( 'NONE', *, *, #5, .F. ) ;
#94 = LINE ( 'NONE', #39, #46 ) ;
#95 = PERSON_AND_ORGANIZATION ( #86, #203 ) ;
#96 = DIRECTION ( 'NONE',  ( 0.000000000000000000, 0.000000000000000000, 1.000000000000000000 ) ) ;
#97 = EDGE_CURVE ( 'NONE', #187, #18, #212, .T. ) ;
#98 = ADVANCED_FACE ( 'NONE', ( #146 ), #173, .F. ) ;
#99 = LOCAL_TIME ( 17, 52, 59.00000000000000000, #35 ) ;
#100 = AXIS2_PLACEMENT_3D ( 'NONE', #168, #149, #237 ) ;
#101 = COORDINATED_UNIVERSAL_TIME_OFFSET ( 1, 0, .AHEAD. ) ;
#102 = CIRCLE ( 'NONE', #25, 3.000000000000000444 ) ;
#103 = ORIENTED_EDGE ( 'NONE', *, *, #97, .T. ) ;
#104 = APPROVAL_STATUS ( 'not_yet_approved' ) ;
#105 = APPROVAL ( #104, 'NEURÈENÝ' ) ;
#106 = ORIENTED_EDGE ( 'NONE', *, *, #191, .T. ) ;
#107 = CARTESIAN_POINT ( 'NONE',  ( 0.000000000000000000, 0.000000000000000000, 200.0000000000000000 ) ) ;
#108 = CARTESIAN_POINT ( 'NONE',  ( 0.000000000000000000, 0.000000000000000000, 3.000000000000000000 ) ) ;
#109 = DIRECTION ( 'NONE',  ( 0.000000000000000000, 0.000000000000000000, 1.000000000000000000 ) ) ;
#110 = CC_DESIGN_PERSON_AND_ORGANIZATION_ASSIGNMENT ( #154, #152, ( #251 ) ) ;
#111 = APPROVAL_ROLE ( '' ) ;
#112 = DIRECTION ( 'NONE',  ( 0.000000000000000000, 0.000000000000000000, 1.000000000000000000 ) ) ;
#113 = ORIENTED_EDGE ( 'NONE', *, *, #97, .F. ) ;
#114 = LOCAL_TIME ( 17, 52, 59.00000000000000000, #101 ) ;
#115 = ORIENTED_EDGE ( 'NONE', *, *, #191, .F. ) ;
#116 = AXIS2_PLACEMENT_3D ( 'NONE', #36, #109, #81 ) ;
#117 = DIRECTION ( 'NONE',  ( -0.000000000000000000, -0.000000000000000000, -1.000000000000000000 ) ) ;
#118 = APPROVAL_DATE_TIME ( #167, #1 ) ;
#119 = DIRECTION ( 'NONE',  ( -0.000000000000000000, -0.000000000000000000, -1.000000000000000000 ) ) ;
#120 = DIRECTION ( 'NONE',  ( 1.000000000000000000, 0.000000000000000000, 0.000000000000000000 ) ) ;
#121 = APPLICATION_CONTEXT ( 'configuration controlled 3d designs of mechanical parts and assemblies' ) ;
#122 = CC_DESIGN_DATE_AND_TIME_ASSIGNMENT ( #181, #138, ( #83 ) ) ;
#123 = CARTESIAN_POINT ( 'NONE',  ( 0.000000000000000000, 0.000000000000000000, 0.000000000000000000 ) ) ;
#124 = CARTESIAN_POINT ( 'NONE',  ( 0.000000000000000000, 0.000000000000000000, 3.000000000000000000 ) ) ;
#125 = ORIENTED_EDGE ( 'NONE', *, *, #5, .T. ) ;
#126 = COORDINATED_UNIVERSAL_TIME_OFFSET ( 1, 0, .AHEAD. ) ;
#127 = COORDINATED_UNIVERSAL_TIME_OFFSET ( 1, 0, .AHEAD. ) ;
#128 = CIRCLE ( 'NONE', #21, 1.600000000000000089 ) ;
#129 = ORIENTED_EDGE ( 'NONE', *, *, #58, .T. ) ;
#130 = VERTEX_POINT ( 'NONE', #13 ) ;
#131 = APPROVAL ( #254, 'NEURÈENÝ' ) ;
#132 = PLANE ( 'NONE',  #220 ) ;
#133 = AXIS2_PLACEMENT_3D ( 'NONE', #71, #137, #216 ) ;
#134 = DIRECTION ( 'NONE',  ( 1.000000000000000000, 0.000000000000000000, -0.000000000000000000 ) ) ;
#135 = ORIENTED_EDGE ( 'NONE', *, *, #14, .T. ) ;
#136 = FACE_OUTER_BOUND ( 'NONE', #252, .T. ) ;
#137 = DIRECTION ( 'NONE',  ( 0.000000000000000000, 0.000000000000000000, 1.000000000000000000 ) ) ;
#138 = DATE_TIME_ROLE ( 'creation_date' ) ;
#139 = LOCAL_TIME ( 17, 52, 59.00000000000000000, #127 ) ;
#140 = PERSON_AND_ORGANIZATION ( #86, #203 ) ;
#141 = VERTEX_POINT ( 'NONE', #232 ) ;
#142 = EDGE_CURVE ( 'NONE', #130, #23, #102, .T. ) ;
#143 = DATE_TIME_ROLE ( 'classification_date' ) ;
#144 = CARTESIAN_POINT ( 'NONE',  ( 3.000000000000000444, 3.673940397442060361E-16, 3.000000000000000000 ) ) ;
#145 = ORIENTED_EDGE ( 'NONE', *, *, #219, .F. ) ;
#146 = FACE_OUTER_BOUND ( 'NONE', #50, .T. ) ;
#147 = EDGE_LOOP ( 'NONE', ( #223, #103 ) ) ;
#148 = FACE_OUTER_BOUND ( 'NONE', #147, .T. ) ;
#149 = DIRECTION ( 'NONE',  ( -0.000000000000000000, -0.000000000000000000, -1.000000000000000000 ) ) ;
#150 = ADVANCED_FACE ( 'NONE', ( #230 ), #205, .T. ) ;
#151 = FACE_OUTER_BOUND ( 'NONE', #233, .T. ) ;
#152 = PERSON_AND_ORGANIZATION_ROLE ( 'design_owner' ) ;
#153 = CC_DESIGN_SECURITY_CLASSIFICATION ( #178, ( #32 ) ) ;
#154 = PERSON_AND_ORGANIZATION ( #86, #203 ) ;
#155 = AXIS2_PLACEMENT_3D ( 'NONE', #199, #28, #3 ) ;
#156 = CC_DESIGN_PERSON_AND_ORGANIZATION_ASSIGNMENT ( #95, #189, ( #32 ) ) ;
#157 = DATE_AND_TIME ( #2, #114 ) ;
#158 = CARTESIAN_POINT ( 'NONE',  ( 3.000000000000000444, 3.673940397442060361E-16, 3.000000000000000000 ) ) ;
#159 = EDGE_CURVE ( 'NONE', #141, #57, #208, .T. ) ;
#160 = APPROVAL_DATE_TIME ( #84, #105 ) ;
#161 = DIRECTION ( 'NONE',  ( -0.000000000000000000, -0.000000000000000000, -1.000000000000000000 ) ) ;
#162 = ORIENTED_EDGE ( 'NONE', *, *, #200, .T. ) ;
#163 = FACE_OUTER_BOUND ( 'NONE', #72, .T. ) ;
#164 = DIRECTION ( 'NONE',  ( 0.000000000000000000, 0.000000000000000000, 1.000000000000000000 ) ) ;
#165 = FACE_BOUND ( 'NONE', #29, .T. ) ;
#166 = LOCAL_TIME ( 17, 52, 59.00000000000000000, #126 ) ;
#167 = DATE_AND_TIME ( #59, #62 ) ;
#168 = CARTESIAN_POINT ( 'NONE',  ( 0.000000000000000000, 0.000000000000000000, 3.000000000000000000 ) ) ;
#169 = DIRECTION ( 'NONE',  ( -0.000000000000000000, -0.000000000000000000, -1.000000000000000000 ) ) ;
#170 = CC_DESIGN_PERSON_AND_ORGANIZATION_ASSIGNMENT ( #228, #198, ( #83 ) ) ;
#171 = DIRECTION ( 'NONE',  ( 1.000000000000000000, 0.000000000000000000, 0.000000000000000000 ) ) ;
#172 = ADVANCED_BREP_SHAPE_REPRESENTATION ( 'cf54', ( #243, #225 ), #12 ) ;
#173 = PLANE ( 'NONE',  #133 ) ;
#174 = ORIENTED_EDGE ( 'NONE', *, *, #142, .T. ) ;
#175 = DIRECTION ( 'NONE',  ( 1.000000000000000000, 0.000000000000000000, 0.000000000000000000 ) ) ;
#176 = CARTESIAN_POINT ( 'NONE',  ( 0.000000000000000000, 0.000000000000000000, 200.0000000000000000 ) ) ;
#177 = PERSON_AND_ORGANIZATION ( #86, #203 ) ;
#178 = SECURITY_CLASSIFICATION ( '', '', #40 ) ;
#179 = PLANE ( 'NONE',  #197 ) ;
#180 = DIRECTION ( 'NONE',  ( 1.000000000000000000, 0.000000000000000000, 0.000000000000000000 ) ) ;
#181 = DATE_AND_TIME ( #24, #166 ) ;
#182 = ORIENTED_EDGE ( 'NONE', *, *, #58, .F. ) ;
#183 = LINE ( 'NONE', #158, #68 ) ;
#184 = VECTOR ( 'NONE', #119, 1000.000000000000000 ) ;
#185 = ORIENTED_EDGE ( 'NONE', *, *, #200, .F. ) ;
#186 = DIRECTION ( 'NONE',  ( -0.000000000000000000, -0.000000000000000000, -1.000000000000000000 ) ) ;
#187 = VERTEX_POINT ( 'NONE', #144 ) ;
#188 = DIRECTION ( 'NONE',  ( 1.000000000000000000, 0.000000000000000000, 0.000000000000000000 ) ) ;
#189 = PERSON_AND_ORGANIZATION_ROLE ( 'design_supplier' ) ;
#190 = DIRECTION ( 'NONE',  ( 0.000000000000000000, 0.000000000000000000, 1.000000000000000000 ) ) ;
#191 = EDGE_CURVE ( 'NONE', #204, #87, #17, .T. ) ;
#192 = ORIENTED_EDGE ( 'NONE', *, *, #14, .F. ) ;
#193 = AXIS2_PLACEMENT_3D ( 'NONE', #69, #229, #55 ) ;
#194 = CARTESIAN_POINT ( 'NONE',  ( 0.000000000000000000, 0.000000000000000000, 200.0000000000000000 ) ) ;
#195 = DESIGN_CONTEXT ( 'detailed design', #10, 'design' ) ;
#196 = ADVANCED_FACE ( 'NONE', ( #165, #148 ), #132, .T. ) ;
#197 = AXIS2_PLACEMENT_3D ( 'NONE', #176, #240, #63 ) ;
#198 = PERSON_AND_ORGANIZATION_ROLE ( 'creator' ) ;
#199 = CARTESIAN_POINT ( 'NONE',  ( 0.000000000000000000, 0.000000000000000000, 3.000000000000000000 ) ) ;
#200 = EDGE_CURVE ( 'NONE', #18, #130, #94, .T. ) ;
#201 = PRODUCT_RELATED_PRODUCT_CATEGORY ( 'detail', '', ( #251 ) ) ;
#202 = FACE_OUTER_BOUND ( 'NONE', #49, .T. ) ;
#203 = ORGANIZATION ( 'NEURÈENÝ', 'NEURÈENÝ', '' ) ;
#204 = VERTEX_POINT ( 'NONE', #247 ) ;
#205 = CYLINDRICAL_SURFACE ( 'NONE', #48, 3.000000000000000444 ) ;
#206 = ORIENTED_EDGE ( 'NONE', *, *, #219, .T. ) ;
#207 = ADVANCED_FACE ( 'NONE', ( #136 ), #211, .T. ) ;
#208 = LINE ( 'NONE', #74, #184 ) ;
#209 = CC_DESIGN_APPROVAL ( #105, ( #32 ) ) ;
#210 = SHAPE_DEFINITION_REPRESENTATION ( #215, #172 ) ;
#211 = CYLINDRICAL_SURFACE ( 'NONE', #248, 1.600000000000000089 ) ;
#212 = CIRCLE ( 'NONE', #66, 3.000000000000000444 ) ;
#213 = CARTESIAN_POINT ( 'NONE',  ( 0.000000000000000000, 0.000000000000000000, 200.0000000000000000 ) ) ;
#214 = CC_DESIGN_PERSON_AND_ORGANIZATION_ASSIGNMENT ( #11, #70, ( #178 ) ) ;
#215 = PRODUCT_DEFINITION_SHAPE ( 'NONE', 'NONE',  #83 ) ;
#216 = DIRECTION ( 'NONE',  ( 1.000000000000000000, 0.000000000000000000, -0.000000000000000000 ) ) ;
#217 = DIRECTION ( 'NONE',  ( 0.000000000000000000, 0.000000000000000000, 1.000000000000000000 ) ) ;
#218 = DIRECTION ( 'NONE',  ( 0.000000000000000000, 0.000000000000000000, 1.000000000000000000 ) ) ;
#219 = EDGE_CURVE ( 'NONE', #204, #141, #30, .T. ) ;
#220 = AXIS2_PLACEMENT_3D ( 'NONE', #37, #250, #134 ) ;
#221 = APPROVAL_ROLE ( '' ) ;
#222 =( NAMED_UNIT ( * ) PLANE_ANGLE_UNIT ( ) SI_UNIT ( $, .RADIAN. ) );
#223 = ORIENTED_EDGE ( 'NONE', *, *, #47, .T. ) ;
#224 = PERSON_AND_ORGANIZATION ( #86, #203 ) ;
#225 = AXIS2_PLACEMENT_3D ( 'NONE', #123, #217, #175 ) ;
#226 = PERSON_AND_ORGANIZATION_ROLE ( 'creator' ) ;
#227 = ORIENTED_EDGE ( 'NONE', *, *, #7, .T. ) ;
#228 = PERSON_AND_ORGANIZATION ( #86, #203 ) ;
#229 = DIRECTION ( 'NONE',  ( 0.000000000000000000, 0.000000000000000000, 1.000000000000000000 ) ) ;
#230 = FACE_OUTER_BOUND ( 'NONE', #26, .T. ) ;
#231 = COORDINATED_UNIVERSAL_TIME_OFFSET ( 1, 0, .AHEAD. ) ;
#232 = CARTESIAN_POINT ( 'NONE',  ( 1.600000000000000089, 1.959434878635765230E-16, 200.0000000000000000 ) ) ;
#233 = EDGE_LOOP ( 'NONE', ( #206, #135 ) ) ;
#234 = CARTESIAN_POINT ( 'NONE',  ( 0.000000000000000000, 0.000000000000000000, 3.000000000000000000 ) ) ;
#235 = DIRECTION ( 'NONE',  ( -0.000000000000000000, -0.000000000000000000, -1.000000000000000000 ) ) ;
#236 = CIRCLE ( 'NONE', #155, 1.600000000000000089 ) ;
#237 = DIRECTION ( 'NONE',  ( -1.000000000000000000, 0.000000000000000000, 0.000000000000000000 ) ) ;
#238 = APPROVAL_PERSON_ORGANIZATION ( #224, #105, #52 ) ;
#239 = CLOSED_SHELL ( 'NONE', ( #75, #150, #85, #196, #98, #207, #33 ) ) ;
#240 = DIRECTION ( 'NONE',  ( 0.000000000000000000, 0.000000000000000000, 1.000000000000000000 ) ) ;
#241 = CARTESIAN_POINT ( 'NONE',  ( -3.000000000000000444, 0.000000000000000000, 3.000000000000000000 ) ) ;
#242 = CC_DESIGN_PERSON_AND_ORGANIZATION_ASSIGNMENT ( #140, #226, ( #32 ) ) ;
#243 = MANIFOLD_SOLID_BREP ( 'Pøidat vysunutím3', #239 ) ;
#244 = DIRECTION ( 'NONE',  ( 1.000000000000000000, 0.000000000000000000, 0.000000000000000000 ) ) ;
#245 = CARTESIAN_POINT ( 'NONE',  ( -1.600000000000000089, 0.000000000000000000, 200.0000000000000000 ) ) ;
#246 = CARTESIAN_POINT ( 'NONE',  ( 0.000000000000000000, 0.000000000000000000, 3.000000000000000000 ) ) ;
#247 = CARTESIAN_POINT ( 'NONE',  ( -1.600000000000000089, 0.000000000000000000, 200.0000000000000000 ) ) ;
#248 = AXIS2_PLACEMENT_3D ( 'NONE', #194, #235, #16 ) ;
#249 = APPROVAL_PERSON_ORGANIZATION ( #56, #1, #111 ) ;
#250 = DIRECTION ( 'NONE',  ( 0.000000000000000000, 0.000000000000000000, 1.000000000000000000 ) ) ;
#251 = PRODUCT ( 'cf54', 'cf54', '', ( #19 ) ) ;
#252 = EDGE_LOOP ( 'NONE', ( #6, #145, #106, #125 ) ) ;
#253 = CC_DESIGN_APPROVAL ( #131, ( #83 ) ) ;
#254 = APPROVAL_STATUS ( 'not_yet_approved' ) ;
#255 = CIRCLE ( 'NONE', #88, 3.000000000000000444 ) ;
ENDSEC;
END-ISO-10303-21;
