ISO-10303-21;
HEADER;
FILE_DESCRIPTION (( 'STEP AP203' ),
    '1' );
FILE_NAME ('121e.STEP',
    '2023-02-13T10:37:03',
    ( '' ),
    ( '' ),
    'SwSTEP 2.0',
    'SolidWorks 2019',
    '' );
FILE_SCHEMA (( 'CONFIG_CONTROL_DESIGN' ));
ENDSEC;

DATA;
#1 = DIRECTION ( 'NONE',  ( 0.000000000000000000, 0.000000000000000000, 1.000000000000000000 ) ) ;
#2 = ORIENTED_EDGE ( 'NONE', *, *, #241, .F. ) ;
#3 = SECURITY_CLASSIFICATION_LEVEL ( 'unclassified' ) ;
#4 = DIRECTION ( 'NONE',  ( 1.000000000000000000, 0.000000000000000000, -0.000000000000000000 ) ) ;
#5 = VERTEX_POINT ( 'NONE', #26 ) ;
#6 = CC_DESIGN_PERSON_AND_ORGANIZATION_ASSIGNMENT ( #22, #254, ( #247 ) ) ;
#7 = DIRECTION ( 'NONE',  ( 0.000000000000000000, 0.000000000000000000, 1.000000000000000000 ) ) ;
#8 = DIRECTION ( 'NONE',  ( 1.000000000000000000, 0.000000000000000000, 0.000000000000000000 ) ) ;
#9 = LOCAL_TIME ( 11, 37, 3.000000000000000000, #215 ) ;
#10 = CARTESIAN_POINT ( 'NONE',  ( -6.250000000000000000, 0.000000000000000000, 7.000000000000000000 ) ) ;
#11 = DIRECTION ( 'NONE',  ( 0.000000000000000000, 0.000000000000000000, 1.000000000000000000 ) ) ;
#12 = CARTESIAN_POINT ( 'NONE',  ( 0.000000000000000000, 0.000000000000000000, 0.000000000000000000 ) ) ;
#13 = APPROVAL_PERSON_ORGANIZATION ( #116, #233, #193 ) ;
#14 = LINE ( 'NONE', #242, #224 ) ;
#15 = PERSON_AND_ORGANIZATION ( #83, #114 ) ;
#16 = ADVANCED_FACE ( 'NONE', ( #158 ), #120, .F. ) ;
#17 = PERSON_AND_ORGANIZATION ( #83, #114 ) ;
#18 = DIRECTION ( 'NONE',  ( 0.000000000000000000, 0.000000000000000000, 1.000000000000000000 ) ) ;
#19 = ORIENTED_EDGE ( 'NONE', *, *, #142, .F. ) ;
#20 = APPLICATION_PROTOCOL_DEFINITION ( 'international standard', 'config_control_design', 1994, #245 ) ;
#21 = EDGE_LOOP ( 'NONE', ( #162, #39 ) ) ;
#22 = PERSON_AND_ORGANIZATION ( #83, #114 ) ;
#23 = EDGE_LOOP ( 'NONE', ( #71, #165, #118, #115 ) ) ;
#24 = ORIENTED_EDGE ( 'NONE', *, *, #229, .F. ) ;
#25 = ORIENTED_EDGE ( 'NONE', *, *, #129, .T. ) ;
#26 = CARTESIAN_POINT ( 'NONE',  ( -9.000000000000000000, 0.000000000000000000, 0.000000000000000000 ) ) ;
#27 = DIRECTION ( 'NONE',  ( 0.000000000000000000, 0.000000000000000000, 1.000000000000000000 ) ) ;
#28 = FACE_OUTER_BOUND ( 'NONE', #23, .T. ) ;
#29 = CARTESIAN_POINT ( 'NONE',  ( 9.000000000000000000, 1.102182119232617714E-15, 0.000000000000000000 ) ) ;
#30 = LOCAL_TIME ( 11, 37, 3.000000000000000000, #132 ) ;
#31 = APPROVAL_ROLE ( '' ) ;
#32 = DESIGN_CONTEXT ( 'detailed design', #245, 'design' ) ;
#33 = PERSON_AND_ORGANIZATION_ROLE ( 'creator' ) ;
#34 = VERTEX_POINT ( 'NONE', #117 ) ;
#35 = SECURITY_CLASSIFICATION ( '', '', #3 ) ;
#36 = CALENDAR_DATE ( 2023, 13, 2 ) ;
#37 = FACE_BOUND ( 'NONE', #21, .T. ) ;
#38 = CARTESIAN_POINT ( 'NONE',  ( -9.000000000000000000, 0.000000000000000000, 7.000000000000000000 ) ) ;
#39 = ORIENTED_EDGE ( 'NONE', *, *, #129, .F. ) ;
#40 = AXIS2_PLACEMENT_3D ( 'NONE', #174, #249, #188 ) ;
#41 = ORIENTED_EDGE ( 'NONE', *, *, #196, .F. ) ;
#42 = CARTESIAN_POINT ( 'NONE',  ( 0.000000000000000000, 0.000000000000000000, 7.000000000000000000 ) ) ;
#43 = DIRECTION ( 'NONE',  ( 1.000000000000000000, 0.000000000000000000, 0.000000000000000000 ) ) ;
#44 = AXIS2_PLACEMENT_3D ( 'NONE', #230, #27, #86 ) ;
#45 = CARTESIAN_POINT ( 'NONE',  ( 0.000000000000000000, 0.000000000000000000, 7.000000000000000000 ) ) ;
#46 = CIRCLE ( 'NONE', #155, 9.000000000000000000 ) ;
#47 = CC_DESIGN_PERSON_AND_ORGANIZATION_ASSIGNMENT ( #17, #33, ( #247 ) ) ;
#48 = CARTESIAN_POINT ( 'NONE',  ( 0.000000000000000000, 0.000000000000000000, 800.0000000000000000 ) ) ;
#49 = AXIS2_PLACEMENT_3D ( 'NONE', #206, #141, #169 ) ;
#50 = DATE_AND_TIME ( #111, #179 ) ;
#51 = ADVANCED_FACE ( 'NONE', ( #37, #185 ), #133, .T. ) ;
#52 = ORIENTED_EDGE ( 'NONE', *, *, #90, .T. ) ;
#53 = PERSON_AND_ORGANIZATION ( #83, #114 ) ;
#54 = EDGE_LOOP ( 'NONE', ( #19, #128 ) ) ;
#55 = CALENDAR_DATE ( 2023, 13, 2 ) ;
#56 = FACE_OUTER_BOUND ( 'NONE', #89, .T. ) ;
#57 = ORIENTED_EDGE ( 'NONE', *, *, #109, .T. ) ;
#58 = ORIENTED_EDGE ( 'NONE', *, *, #88, .T. ) ;
#59 = APPROVAL_PERSON_ORGANIZATION ( #113, #68, #159 ) ;
#60 = FACE_OUTER_BOUND ( 'NONE', #203, .T. ) ;
#61 = DIRECTION ( 'NONE',  ( 1.000000000000000000, 0.000000000000000000, 0.000000000000000000 ) ) ;
#62 = DIRECTION ( 'NONE',  ( 1.000000000000000000, 0.000000000000000000, -0.000000000000000000 ) ) ;
#63 = CIRCLE ( 'NONE', #44, 9.000000000000000000 ) ;
#64 = DIRECTION ( 'NONE',  ( -0.000000000000000000, -0.000000000000000000, -1.000000000000000000 ) ) ;
#65 = LINE ( 'NONE', #105, #73 ) ;
#66 = CALENDAR_DATE ( 2023, 13, 2 ) ;
#67 = PERSON_AND_ORGANIZATION_ROLE ( 'creator' ) ;
#68 = APPROVAL ( #72, 'NEURÈENÝ' ) ;
#69 = APPROVAL_DATE_TIME ( #255, #207 ) ;
#70 = LINE ( 'NONE', #135, #136 ) ;
#71 = ORIENTED_EDGE ( 'NONE', *, *, #88, .F. ) ;
#72 = APPROVAL_STATUS ( 'not_yet_approved' ) ;
#73 = VECTOR ( 'NONE', #226, 1000.000000000000000 ) ;
#74 = ORIENTED_EDGE ( 'NONE', *, *, #90, .F. ) ;
#75 = CARTESIAN_POINT ( 'NONE',  ( 0.000000000000000000, 0.000000000000000000, 7.000000000000000000 ) ) ;
#76 = AXIS2_PLACEMENT_3D ( 'NONE', #45, #106, #208 ) ;
#77 = ADVANCED_FACE ( 'NONE', ( #56 ), #182, .T. ) ;
#78 = EDGE_LOOP ( 'NONE', ( #222, #237 ) ) ;
#79 = DIRECTION ( 'NONE',  ( 0.000000000000000000, 0.000000000000000000, 1.000000000000000000 ) ) ;
#80 = CYLINDRICAL_SURFACE ( 'NONE', #108, 9.000000000000000000 ) ;
#81 = AXIS2_PLACEMENT_3D ( 'NONE', #168, #126, #43 ) ;
#82 = DIRECTION ( 'NONE',  ( 1.000000000000000000, 0.000000000000000000, 0.000000000000000000 ) ) ;
#83 = PERSON ( 'NEURÈENÝ', 'NEURÈENÝ', 'NEURÈENÝ', ('NEURÈENÝ'), ('NEURÈENÝ'), ('NEURÈENÝ') ) ;
#84 = DIRECTION ( 'NONE',  ( -1.000000000000000000, 0.000000000000000000, 0.000000000000000000 ) ) ;
#85 = CIRCLE ( 'NONE', #167, 9.000000000000000000 ) ;
#86 = DIRECTION ( 'NONE',  ( 1.000000000000000000, 0.000000000000000000, 0.000000000000000000 ) ) ;
#87 = COORDINATED_UNIVERSAL_TIME_OFFSET ( 1, 0, .AHEAD. ) ;
#88 = EDGE_CURVE ( 'NONE', #197, #139, #70, .T. ) ;
#89 = EDGE_LOOP ( 'NONE', ( #41, #195, #52, #99 ) ) ;
#90 = EDGE_CURVE ( 'NONE', #112, #5, #156, .T. ) ;
#91 = DIRECTION ( 'NONE',  ( 1.000000000000000000, 0.000000000000000000, 0.000000000000000000 ) ) ;
#92 = CC_DESIGN_APPROVAL ( #68, ( #35 ) ) ;
#93 = PERSON_AND_ORGANIZATION ( #83, #114 ) ;
#94 = VERTEX_POINT ( 'NONE', #29 ) ;
#95 = CLOSED_SHELL ( 'NONE', ( #176, #244, #77, #51, #16, #131, #216 ) ) ;
#96 = DATE_TIME_ROLE ( 'classification_date' ) ;
#97 = CARTESIAN_POINT ( 'NONE',  ( 0.000000000000000000, 0.000000000000000000, 0.000000000000000000 ) ) ;
#98 = AXIS2_PLACEMENT_3D ( 'NONE', #234, #18, #91 ) ;
#99 = ORIENTED_EDGE ( 'NONE', *, *, #142, .T. ) ;
#100 = EDGE_LOOP ( 'NONE', ( #24, #186, #57, #74 ) ) ;
#101 = AXIS2_PLACEMENT_3D ( 'NONE', #102, #64, #143 ) ;
#102 = CARTESIAN_POINT ( 'NONE',  ( 0.000000000000000000, 0.000000000000000000, 800.0000000000000000 ) ) ;
#103 = CARTESIAN_POINT ( 'NONE',  ( 9.000000000000000000, 1.102182119232617714E-15, 7.000000000000000000 ) ) ;
#104 = CC_DESIGN_PERSON_AND_ORGANIZATION_ASSIGNMENT ( #93, #67, ( #151 ) ) ;
#105 = CARTESIAN_POINT ( 'NONE',  ( -6.250000000000000000, 0.000000000000000000, 800.0000000000000000 ) ) ;
#106 = DIRECTION ( 'NONE',  ( 0.000000000000000000, 0.000000000000000000, 1.000000000000000000 ) ) ;
#107 = DATE_AND_TIME ( #36, #30 ) ;
#108 = AXIS2_PLACEMENT_3D ( 'NONE', #42, #149, #84 ) ;
#109 = EDGE_CURVE ( 'NONE', #94, #5, #46, .T. ) ;
#110 = AXIS2_PLACEMENT_3D ( 'NONE', #248, #144, #8 ) ;
#111 = CALENDAR_DATE ( 2023, 13, 2 ) ;
#112 = VERTEX_POINT ( 'NONE', #187 ) ;
#113 = PERSON_AND_ORGANIZATION ( #83, #114 ) ;
#114 = ORGANIZATION ( 'NEURÈENÝ', 'NEURÈENÝ', '' ) ;
#115 = ORIENTED_EDGE ( 'NONE', *, *, #250, .T. ) ;
#116 = PERSON_AND_ORGANIZATION ( #83, #114 ) ;
#117 = CARTESIAN_POINT ( 'NONE',  ( -6.250000000000000000, 0.000000000000000000, 800.0000000000000000 ) ) ;
#118 = ORIENTED_EDGE ( 'NONE', *, *, #241, .T. ) ;
#119 = LOCAL_TIME ( 11, 37, 3.000000000000000000, #192 ) ;
#120 = PLANE ( 'NONE',  #163 ) ;
#121 = CARTESIAN_POINT ( 'NONE',  ( 0.000000000000000000, 0.000000000000000000, 7.000000000000000000 ) ) ;
#122 = ADVANCED_BREP_SHAPE_REPRESENTATION ( '121e', ( #217, #98 ), #213 ) ;
#123 = CARTESIAN_POINT ( 'NONE',  ( 6.250000000000000000, 7.654042494670957606E-16, 800.0000000000000000 ) ) ;
#124 = PLANE ( 'NONE',  #194 ) ;
#125 =( NAMED_UNIT ( * ) PLANE_ANGLE_UNIT ( ) SI_UNIT ( $, .RADIAN. ) );
#126 = DIRECTION ( 'NONE',  ( 0.000000000000000000, 0.000000000000000000, 1.000000000000000000 ) ) ;
#127 = CIRCLE ( 'NONE', #76, 6.250000000000000000 ) ;
#128 = ORIENTED_EDGE ( 'NONE', *, *, #109, .F. ) ;
#129 = EDGE_CURVE ( 'NONE', #139, #201, #127, .T. ) ;
#130 = PERSON_AND_ORGANIZATION ( #83, #114 ) ;
#131 = ADVANCED_FACE ( 'NONE', ( #28 ), #240, .T. ) ;
#132 = COORDINATED_UNIVERSAL_TIME_OFFSET ( 1, 0, .AHEAD. ) ;
#133 = PLANE ( 'NONE',  #243 ) ;
#134 = APPROVAL_DATE_TIME ( #154, #68 ) ;
#135 = CARTESIAN_POINT ( 'NONE',  ( 6.250000000000000000, 7.654042494670957606E-16, 800.0000000000000000 ) ) ;
#136 = VECTOR ( 'NONE', #184, 1000.000000000000000 ) ;
#137 = ORIENTED_EDGE ( 'NONE', *, *, #161, .T. ) ;
#138 = APPROVAL_PERSON_ORGANIZATION ( #130, #207, #31 ) ;
#139 = VERTEX_POINT ( 'NONE', #246 ) ;
#140 = APPLICATION_CONTEXT ( 'configuration controlled 3d designs of mechanical parts and assemblies' ) ;
#141 = DIRECTION ( 'NONE',  ( 0.000000000000000000, 0.000000000000000000, 1.000000000000000000 ) ) ;
#142 = EDGE_CURVE ( 'NONE', #5, #94, #199, .T. ) ;
#143 = DIRECTION ( 'NONE',  ( -1.000000000000000000, 0.000000000000000000, 0.000000000000000000 ) ) ;
#144 = DIRECTION ( 'NONE',  ( 0.000000000000000000, 0.000000000000000000, 1.000000000000000000 ) ) ;
#145 = CIRCLE ( 'NONE', #40, 6.250000000000000000 ) ;
#146 = DIRECTION ( 'NONE',  ( -0.000000000000000000, -0.000000000000000000, -1.000000000000000000 ) ) ;
#147 = CIRCLE ( 'NONE', #49, 6.250000000000000000 ) ;
#148 = PRODUCT_RELATED_PRODUCT_CATEGORY ( 'detail', '', ( #170 ) ) ;
#149 = DIRECTION ( 'NONE',  ( -0.000000000000000000, -0.000000000000000000, -1.000000000000000000 ) ) ;
#150 = CALENDAR_DATE ( 2023, 13, 2 ) ;
#151 = PRODUCT_DEFINITION ( 'NEZNÁMÝ', '', #247, #32 ) ;
#152 = CC_DESIGN_APPROVAL ( #233, ( #247 ) ) ;
#153 = DATE_TIME_ROLE ( 'creation_date' ) ;
#154 = DATE_AND_TIME ( #55, #211 ) ;
#155 = AXIS2_PLACEMENT_3D ( 'NONE', #12, #79, #82 ) ;
#156 = LINE ( 'NONE', #38, #177 ) ;
#157 =( NAMED_UNIT ( * ) SI_UNIT ( $, .STERADIAN. ) SOLID_ANGLE_UNIT ( ) );
#158 = FACE_OUTER_BOUND ( 'NONE', #54, .T. ) ;
#159 = APPROVAL_ROLE ( '' ) ;
#160 = EDGE_LOOP ( 'NONE', ( #252, #137 ) ) ;
#161 = EDGE_CURVE ( 'NONE', #197, #34, #232, .T. ) ;
#162 = ORIENTED_EDGE ( 'NONE', *, *, #250, .F. ) ;
#163 = AXIS2_PLACEMENT_3D ( 'NONE', #97, #7, #202 ) ;
#164 = AXIS2_PLACEMENT_3D ( 'NONE', #205, #190, #210 ) ;
#165 = ORIENTED_EDGE ( 'NONE', *, *, #181, .F. ) ;
#166 = CC_DESIGN_DATE_AND_TIME_ASSIGNMENT ( #107, #153, ( #151 ) ) ;
#167 = AXIS2_PLACEMENT_3D ( 'NONE', #225, #228, #61 ) ;
#168 = CARTESIAN_POINT ( 'NONE',  ( 0.000000000000000000, 0.000000000000000000, 0.000000000000000000 ) ) ;
#169 = DIRECTION ( 'NONE',  ( 1.000000000000000000, 0.000000000000000000, 0.000000000000000000 ) ) ;
#170 = PRODUCT ( '121e', '121e', '', ( #220 ) ) ;
#171 = CYLINDRICAL_SURFACE ( 'NONE', #101, 6.250000000000000000 ) ;
#172 =( LENGTH_UNIT ( ) NAMED_UNIT ( * ) SI_UNIT ( .MILLI., .METRE. ) );
#173 = CC_DESIGN_DATE_AND_TIME_ASSIGNMENT ( #50, #96, ( #35 ) ) ;
#174 = CARTESIAN_POINT ( 'NONE',  ( 0.000000000000000000, 0.000000000000000000, 7.000000000000000000 ) ) ;
#175 = SHAPE_DEFINITION_REPRESENTATION ( #227, #122 ) ;
#176 = ADVANCED_FACE ( 'NONE', ( #60 ), #171, .T. ) ;
#177 = VECTOR ( 'NONE', #235, 1000.000000000000000 ) ;
#178 = PERSON_AND_ORGANIZATION_ROLE ( 'classification_officer' ) ;
#179 = LOCAL_TIME ( 11, 37, 3.000000000000000000, #87 ) ;
#180 = APPLICATION_PROTOCOL_DEFINITION ( 'international standard', 'config_control_design', 1994, #140 ) ;
#181 = EDGE_CURVE ( 'NONE', #34, #197, #147, .T. ) ;
#182 = CYLINDRICAL_SURFACE ( 'NONE', #231, 9.000000000000000000 ) ;
#183 = DATE_AND_TIME ( #66, #9 ) ;
#184 = DIRECTION ( 'NONE',  ( -0.000000000000000000, -0.000000000000000000, -1.000000000000000000 ) ) ;
#185 = FACE_OUTER_BOUND ( 'NONE', #78, .T. ) ;
#186 = ORIENTED_EDGE ( 'NONE', *, *, #196, .T. ) ;
#187 = CARTESIAN_POINT ( 'NONE',  ( -9.000000000000000000, 0.000000000000000000, 7.000000000000000000 ) ) ;
#188 = DIRECTION ( 'NONE',  ( 1.000000000000000000, 0.000000000000000000, 0.000000000000000000 ) ) ;
#189 = FACE_OUTER_BOUND ( 'NONE', #100, .T. ) ;
#190 = DIRECTION ( 'NONE',  ( -0.000000000000000000, -0.000000000000000000, -1.000000000000000000 ) ) ;
#191 = CC_DESIGN_APPROVAL ( #207, ( #151 ) ) ;
#192 = COORDINATED_UNIVERSAL_TIME_OFFSET ( 1, 0, .AHEAD. ) ;
#193 = APPROVAL_ROLE ( '' ) ;
#194 = AXIS2_PLACEMENT_3D ( 'NONE', #48, #11, #62 ) ;
#195 = ORIENTED_EDGE ( 'NONE', *, *, #204, .F. ) ;
#196 = EDGE_CURVE ( 'NONE', #223, #94, #14, .T. ) ;
#197 = VERTEX_POINT ( 'NONE', #123 ) ;
#198 = APPROVAL_DATE_TIME ( #183, #233 ) ;
#199 = CIRCLE ( 'NONE', #81, 9.000000000000000000 ) ;
#200 = DIRECTION ( 'NONE',  ( -1.000000000000000000, 0.000000000000000000, 0.000000000000000000 ) ) ;
#201 = VERTEX_POINT ( 'NONE', #10 ) ;
#202 = DIRECTION ( 'NONE',  ( 1.000000000000000000, 0.000000000000000000, -0.000000000000000000 ) ) ;
#203 = EDGE_LOOP ( 'NONE', ( #238, #58, #25, #2 ) ) ;
#204 = EDGE_CURVE ( 'NONE', #112, #223, #63, .T. ) ;
#205 = CARTESIAN_POINT ( 'NONE',  ( 0.000000000000000000, 0.000000000000000000, 800.0000000000000000 ) ) ;
#206 = CARTESIAN_POINT ( 'NONE',  ( 0.000000000000000000, 0.000000000000000000, 800.0000000000000000 ) ) ;
#207 = APPROVAL ( #251, 'NEURÈENÝ' ) ;
#208 = DIRECTION ( 'NONE',  ( 1.000000000000000000, 0.000000000000000000, 0.000000000000000000 ) ) ;
#209 = FACE_OUTER_BOUND ( 'NONE', #160, .T. ) ;
#210 = DIRECTION ( 'NONE',  ( -1.000000000000000000, 0.000000000000000000, 0.000000000000000000 ) ) ;
#211 = LOCAL_TIME ( 11, 37, 3.000000000000000000, #236 ) ;
#212 = PERSON_AND_ORGANIZATION_ROLE ( 'design_owner' ) ;
#213 =( GEOMETRIC_REPRESENTATION_CONTEXT ( 3 ) GLOBAL_UNCERTAINTY_ASSIGNED_CONTEXT ( ( #253 ) ) GLOBAL_UNIT_ASSIGNED_CONTEXT ( ( #172, #125, #157 ) ) REPRESENTATION_CONTEXT ( 'NONE', 'WORKASPACE' ) );
#214 = CC_DESIGN_PERSON_AND_ORGANIZATION_ASSIGNMENT ( #15, #178, ( #35 ) ) ;
#215 = COORDINATED_UNIVERSAL_TIME_OFFSET ( 1, 0, .AHEAD. ) ;
#216 = ADVANCED_FACE ( 'NONE', ( #209 ), #124, .T. ) ;
#217 = MANIFOLD_SOLID_BREP ( 'Pøidat vysunutím3', #95 ) ;
#218 = APPROVAL_STATUS ( 'not_yet_approved' ) ;
#219 = CC_DESIGN_PERSON_AND_ORGANIZATION_ASSIGNMENT ( #53, #212, ( #170 ) ) ;
#220 = MECHANICAL_CONTEXT ( 'NONE', #140, 'mechanical' ) ;
#221 = DIRECTION ( 'NONE',  ( -0.000000000000000000, -0.000000000000000000, -1.000000000000000000 ) ) ;
#222 = ORIENTED_EDGE ( 'NONE', *, *, #204, .T. ) ;
#223 = VERTEX_POINT ( 'NONE', #103 ) ;
#224 = VECTOR ( 'NONE', #146, 1000.000000000000000 ) ;
#225 = CARTESIAN_POINT ( 'NONE',  ( 0.000000000000000000, 0.000000000000000000, 7.000000000000000000 ) ) ;
#226 = DIRECTION ( 'NONE',  ( -0.000000000000000000, -0.000000000000000000, -1.000000000000000000 ) ) ;
#227 = PRODUCT_DEFINITION_SHAPE ( 'NONE', 'NONE',  #151 ) ;
#228 = DIRECTION ( 'NONE',  ( 0.000000000000000000, 0.000000000000000000, 1.000000000000000000 ) ) ;
#229 = EDGE_CURVE ( 'NONE', #223, #112, #85, .T. ) ;
#230 = CARTESIAN_POINT ( 'NONE',  ( 0.000000000000000000, 0.000000000000000000, 7.000000000000000000 ) ) ;
#231 = AXIS2_PLACEMENT_3D ( 'NONE', #121, #221, #200 ) ;
#232 = CIRCLE ( 'NONE', #110, 6.250000000000000000 ) ;
#233 = APPROVAL ( #218, 'NEURÈENÝ' ) ;
#234 = CARTESIAN_POINT ( 'NONE',  ( 0.000000000000000000, 0.000000000000000000, 0.000000000000000000 ) ) ;
#235 = DIRECTION ( 'NONE',  ( -0.000000000000000000, -0.000000000000000000, -1.000000000000000000 ) ) ;
#236 = COORDINATED_UNIVERSAL_TIME_OFFSET ( 1, 0, .AHEAD. ) ;
#237 = ORIENTED_EDGE ( 'NONE', *, *, #229, .T. ) ;
#238 = ORIENTED_EDGE ( 'NONE', *, *, #161, .F. ) ;
#239 = CC_DESIGN_SECURITY_CLASSIFICATION ( #35, ( #247 ) ) ;
#240 = CYLINDRICAL_SURFACE ( 'NONE', #164, 6.250000000000000000 ) ;
#241 = EDGE_CURVE ( 'NONE', #34, #201, #65, .T. ) ;
#242 = CARTESIAN_POINT ( 'NONE',  ( 9.000000000000000000, 1.102182119232617714E-15, 7.000000000000000000 ) ) ;
#243 = AXIS2_PLACEMENT_3D ( 'NONE', #75, #1, #4 ) ;
#244 = ADVANCED_FACE ( 'NONE', ( #189 ), #80, .T. ) ;
#245 = APPLICATION_CONTEXT ( 'configuration controlled 3d designs of mechanical parts and assemblies' ) ;
#246 = CARTESIAN_POINT ( 'NONE',  ( 6.250000000000000000, 7.654042494670957606E-16, 7.000000000000000000 ) ) ;
#247 = PRODUCT_DEFINITION_FORMATION_WITH_SPECIFIED_SOURCE ( 'LIBOVOLNÝ', '', #170, .NOT_KNOWN. ) ;
#248 = CARTESIAN_POINT ( 'NONE',  ( 0.000000000000000000, 0.000000000000000000, 800.0000000000000000 ) ) ;
#249 = DIRECTION ( 'NONE',  ( 0.000000000000000000, 0.000000000000000000, 1.000000000000000000 ) ) ;
#250 = EDGE_CURVE ( 'NONE', #201, #139, #145, .T. ) ;
#251 = APPROVAL_STATUS ( 'not_yet_approved' ) ;
#252 = ORIENTED_EDGE ( 'NONE', *, *, #181, .T. ) ;
#253 = UNCERTAINTY_MEASURE_WITH_UNIT (LENGTH_MEASURE( 1.000000000000000082E-05 ), #172, 'distance_accuracy_value', 'NONE');
#254 = PERSON_AND_ORGANIZATION_ROLE ( 'design_supplier' ) ;
#255 = DATE_AND_TIME ( #150, #119 ) ;
ENDSEC;
END-ISO-10303-21;
