ISO-10303-21;
HEADER;
FILE_DESCRIPTION (( 'STEP AP203' ),
    '1' );
FILE_NAME ('b175.STEP',
    '2023-02-13T16:04:22',
    ( '' ),
    ( '' ),
    'SwSTEP 2.0',
    'SolidWorks 2019',
    '' );
FILE_SCHEMA (( 'CONFIG_CONTROL_DESIGN' ));
ENDSEC;

DATA;
#1 = EDGE_CURVE ( 'NONE', #17, #48, #65, .T. ) ;
#2 = AXIS2_PLACEMENT_3D ( 'NONE', #14, #11, #30 ) ;
#3 =( GEOMETRIC_REPRESENTATION_CONTEXT ( 3 ) GLOBAL_UNCERTAINTY_ASSIGNED_CONTEXT ( ( #77 ) ) GLOBAL_UNIT_ASSIGNED_CONTEXT ( ( #23, #218, #180 ) ) REPRESENTATION_CONTEXT ( 'NONE', 'WORKASPACE' ) );
#4 = PERSON_AND_ORGANIZATION ( #106, #85 ) ;
#5 = DATE_TIME_ROLE ( 'classification_date' ) ;
#6 = ORIENTED_EDGE ( 'NONE', *, *, #53, .F. ) ;
#7 = DIRECTION ( 'NONE',  ( 1.000000000000000000, 0.000000000000000000, 0.000000000000000000 ) ) ;
#8 = DIRECTION ( 'NONE',  ( -1.000000000000000000, 0.000000000000000000, 0.000000000000000000 ) ) ;
#9 = VERTEX_POINT ( 'NONE', #209 ) ;
#10 = AXIS2_PLACEMENT_3D ( 'NONE', #195, #107, #28 ) ;
#11 = DIRECTION ( 'NONE',  ( 0.000000000000000000, 0.000000000000000000, 1.000000000000000000 ) ) ;
#12 = CC_DESIGN_PERSON_AND_ORGANIZATION_ASSIGNMENT ( #141, #42, ( #254 ) ) ;
#13 = APPROVAL_ROLE ( '' ) ;
#14 = CARTESIAN_POINT ( 'NONE',  ( 0.000000000000000000, 0.000000000000000000, 160.0000000000000000 ) ) ;
#15 = VERTEX_POINT ( 'NONE', #177 ) ;
#16 = DIRECTION ( 'NONE',  ( -0.000000000000000000, -0.000000000000000000, -1.000000000000000000 ) ) ;
#17 = VERTEX_POINT ( 'NONE', #250 ) ;
#18 = LINE ( 'NONE', #123, #52 ) ;
#19 = DIRECTION ( 'NONE',  ( 0.000000000000000000, 0.000000000000000000, 1.000000000000000000 ) ) ;
#20 = DIRECTION ( 'NONE',  ( 0.000000000000000000, 0.000000000000000000, 1.000000000000000000 ) ) ;
#21 = CC_DESIGN_PERSON_AND_ORGANIZATION_ASSIGNMENT ( #54, #199, ( #188 ) ) ;
#22 = AXIS2_PLACEMENT_3D ( 'NONE', #102, #230, #32 ) ;
#23 =( LENGTH_UNIT ( ) NAMED_UNIT ( * ) SI_UNIT ( .MILLI., .METRE. ) );
#24 = PRODUCT_RELATED_PRODUCT_CATEGORY ( 'detail', '', ( #251 ) ) ;
#25 = AXIS2_PLACEMENT_3D ( 'NONE', #198, #233, #134 ) ;
#26 = ORIENTED_EDGE ( 'NONE', *, *, #158, .F. ) ;
#27 = CARTESIAN_POINT ( 'NONE',  ( -5.000000000000000000, 0.000000000000000000, 5.000000000000000000 ) ) ;
#28 = DIRECTION ( 'NONE',  ( -1.000000000000000000, 0.000000000000000000, 0.000000000000000000 ) ) ;
#29 = CYLINDRICAL_SURFACE ( 'NONE', #10, 2.600000000000000089 ) ;
#30 = DIRECTION ( 'NONE',  ( 1.000000000000000000, 0.000000000000000000, 0.000000000000000000 ) ) ;
#31 = DIRECTION ( 'NONE',  ( 1.000000000000000000, 0.000000000000000000, 0.000000000000000000 ) ) ;
#32 = DIRECTION ( 'NONE',  ( 1.000000000000000000, 0.000000000000000000, 0.000000000000000000 ) ) ;
#33 = APPLICATION_CONTEXT ( 'configuration controlled 3d designs of mechanical parts and assemblies' ) ;
#34 = AXIS2_PLACEMENT_3D ( 'NONE', #131, #246, #222 ) ;
#35 = CARTESIAN_POINT ( 'NONE',  ( 0.000000000000000000, 0.000000000000000000, 0.000000000000000000 ) ) ;
#36 = FACE_OUTER_BOUND ( 'NONE', #169, .T. ) ;
#37 = APPROVAL ( #159, 'NEURÈENÝ' ) ;
#38 = APPROVAL_DATE_TIME ( #162, #231 ) ;
#39 = DATE_AND_TIME ( #239, #240 ) ;
#40 = PERSON_AND_ORGANIZATION_ROLE ( 'creator' ) ;
#41 = AXIS2_PLACEMENT_3D ( 'NONE', #219, #63, #7 ) ;
#42 = PERSON_AND_ORGANIZATION_ROLE ( 'classification_officer' ) ;
#43 = COORDINATED_UNIVERSAL_TIME_OFFSET ( 1, 0, .AHEAD. ) ;
#44 = LINE ( 'NONE', #27, #88 ) ;
#45 = CYLINDRICAL_SURFACE ( 'NONE', #113, 2.600000000000000089 ) ;
#46 = ORIENTED_EDGE ( 'NONE', *, *, #158, .T. ) ;
#47 = CARTESIAN_POINT ( 'NONE',  ( 2.600000000000000089, 3.184081677783118191E-16, 5.000000000000000000 ) ) ;
#48 = VERTEX_POINT ( 'NONE', #221 ) ;
#49 = ORIENTED_EDGE ( 'NONE', *, *, #103, .T. ) ;
#50 = CARTESIAN_POINT ( 'NONE',  ( 0.000000000000000000, 0.000000000000000000, 5.000000000000000000 ) ) ;
#51 = DIRECTION ( 'NONE',  ( 1.000000000000000000, 0.000000000000000000, 0.000000000000000000 ) ) ;
#52 = VECTOR ( 'NONE', #68, 1000.000000000000000 ) ;
#53 = EDGE_CURVE ( 'NONE', #82, #79, #44, .T. ) ;
#54 = PERSON_AND_ORGANIZATION ( #106, #85 ) ;
#55 = PERSON_AND_ORGANIZATION ( #106, #85 ) ;
#56 = CC_DESIGN_PERSON_AND_ORGANIZATION_ASSIGNMENT ( #55, #234, ( #188 ) ) ;
#57 = ORIENTED_EDGE ( 'NONE', *, *, #220, .T. ) ;
#58 = AXIS2_PLACEMENT_3D ( 'NONE', #138, #20, #51 ) ;
#59 = FACE_OUTER_BOUND ( 'NONE', #242, .T. ) ;
#60 = SHAPE_DEFINITION_REPRESENTATION ( #179, #69 ) ;
#61 = CARTESIAN_POINT ( 'NONE',  ( 0.000000000000000000, 0.000000000000000000, 5.000000000000000000 ) ) ;
#62 = ORIENTED_EDGE ( 'NONE', *, *, #75, .T. ) ;
#63 = DIRECTION ( 'NONE',  ( 0.000000000000000000, 0.000000000000000000, 1.000000000000000000 ) ) ;
#64 = CYLINDRICAL_SURFACE ( 'NONE', #200, 5.000000000000000000 ) ;
#65 = LINE ( 'NONE', #150, #192 ) ;
#66 = CARTESIAN_POINT ( 'NONE',  ( -5.000000000000000000, 0.000000000000000000, 5.000000000000000000 ) ) ;
#67 = DIRECTION ( 'NONE',  ( -0.000000000000000000, -0.000000000000000000, -1.000000000000000000 ) ) ;
#68 = DIRECTION ( 'NONE',  ( -0.000000000000000000, -0.000000000000000000, -1.000000000000000000 ) ) ;
#69 = ADVANCED_BREP_SHAPE_REPRESENTATION ( 'b175', ( #118, #41 ), #3 ) ;
#70 = APPLICATION_PROTOCOL_DEFINITION ( 'international standard', 'config_control_design', 1994, #33 ) ;
#71 = APPROVAL_PERSON_ORGANIZATION ( #4, #37, #163 ) ;
#72 = PRODUCT_DEFINITION ( 'NEZNÁMÝ', '', #188, #243 ) ;
#73 = COORDINATED_UNIVERSAL_TIME_OFFSET ( 1, 0, .AHEAD. ) ;
#74 = DATE_AND_TIME ( #116, #101 ) ;
#75 = EDGE_CURVE ( 'NONE', #15, #82, #214, .T. ) ;
#76 = ORIENTED_EDGE ( 'NONE', *, *, #93, .T. ) ;
#77 = UNCERTAINTY_MEASURE_WITH_UNIT (LENGTH_MEASURE( 1.000000000000000082E-05 ), #23, 'distance_accuracy_value', 'NONE');
#78 = FACE_OUTER_BOUND ( 'NONE', #171, .T. ) ;
#79 = VERTEX_POINT ( 'NONE', #157 ) ;
#80 = DIRECTION ( 'NONE',  ( 1.000000000000000000, 0.000000000000000000, 0.000000000000000000 ) ) ;
#81 = DIRECTION ( 'NONE',  ( -1.000000000000000000, 0.000000000000000000, 0.000000000000000000 ) ) ;
#82 = VERTEX_POINT ( 'NONE', #66 ) ;
#83 = FACE_OUTER_BOUND ( 'NONE', #207, .T. ) ;
#84 = VERTEX_POINT ( 'NONE', #145 ) ;
#85 = ORGANIZATION ( 'NEURÈENÝ', 'NEURÈENÝ', '' ) ;
#86 = DIRECTION ( 'NONE',  ( 0.000000000000000000, 0.000000000000000000, 1.000000000000000000 ) ) ;
#87 = CC_DESIGN_DATE_AND_TIME_ASSIGNMENT ( #182, #5, ( #254 ) ) ;
#88 = VECTOR ( 'NONE', #67, 1000.000000000000000 ) ;
#89 = APPROVAL_ROLE ( '' ) ;
#90 = CALENDAR_DATE ( 2023, 13, 2 ) ;
#91 = CIRCLE ( 'NONE', #236, 2.600000000000000089 ) ;
#92 = PLANE ( 'NONE',  #155 ) ;
#93 = EDGE_CURVE ( 'NONE', #9, #17, #105, .T. ) ;
#94 = AXIS2_PLACEMENT_3D ( 'NONE', #228, #255, #252 ) ;
#95 = PERSON_AND_ORGANIZATION ( #106, #85 ) ;
#96 = ADVANCED_FACE ( 'NONE', ( #83 ), #212, .T. ) ;
#97 = CIRCLE ( 'NONE', #210, 2.600000000000000089 ) ;
#98 = MECHANICAL_CONTEXT ( 'NONE', #144, 'mechanical' ) ;
#99 = LINE ( 'NONE', #156, #114 ) ;
#100 = ORIENTED_EDGE ( 'NONE', *, *, #168, .T. ) ;
#101 = LOCAL_TIME ( 17, 4, 22.00000000000000000, #143 ) ;
#102 = CARTESIAN_POINT ( 'NONE',  ( 0.000000000000000000, 0.000000000000000000, 5.000000000000000000 ) ) ;
#103 = EDGE_CURVE ( 'NONE', #17, #9, #97, .T. ) ;
#104 = ORIENTED_EDGE ( 'NONE', *, *, #203, .F. ) ;
#105 = CIRCLE ( 'NONE', #2, 2.600000000000000089 ) ;
#106 = PERSON ( 'NEURÈENÝ', 'NEURÈENÝ', 'NEURÈENÝ', ('NEURÈENÝ'), ('NEURÈENÝ'), ('NEURÈENÝ') ) ;
#107 = DIRECTION ( 'NONE',  ( -0.000000000000000000, -0.000000000000000000, -1.000000000000000000 ) ) ;
#108 = CC_DESIGN_PERSON_AND_ORGANIZATION_ASSIGNMENT ( #95, #40, ( #72 ) ) ;
#109 = AXIS2_PLACEMENT_3D ( 'NONE', #126, #86, #31 ) ;
#110 = DATE_AND_TIME ( #184, #137 ) ;
#111 = EDGE_CURVE ( 'NONE', #48, #129, #229, .T. ) ;
#112 = APPROVAL_STATUS ( 'not_yet_approved' ) ;
#113 = AXIS2_PLACEMENT_3D ( 'NONE', #211, #16, #227 ) ;
#114 = VECTOR ( 'NONE', #213, 1000.000000000000000 ) ;
#115 = ADVANCED_FACE ( 'NONE', ( #244 ), #224, .T. ) ;
#116 = CALENDAR_DATE ( 2023, 13, 2 ) ;
#117 = PLANE ( 'NONE',  #25 ) ;
#118 = MANIFOLD_SOLID_BREP ( 'Pøidat vysunutím3', #172 ) ;
#119 = DATE_TIME_ROLE ( 'creation_date' ) ;
#120 = COORDINATED_UNIVERSAL_TIME_OFFSET ( 1, 0, .AHEAD. ) ;
#121 = ADVANCED_FACE ( 'NONE', ( #78 ), #64, .T. ) ;
#122 = APPROVAL_PERSON_ORGANIZATION ( #133, #231, #89 ) ;
#123 = CARTESIAN_POINT ( 'NONE',  ( 5.000000000000000000, 6.123233995736766282E-16, 5.000000000000000000 ) ) ;
#124 = ORIENTED_EDGE ( 'NONE', *, *, #183, .T. ) ;
#125 = APPROVAL ( #197, 'NEURÈENÝ' ) ;
#126 = CARTESIAN_POINT ( 'NONE',  ( 0.000000000000000000, 0.000000000000000000, 0.000000000000000000 ) ) ;
#127 = ORIENTED_EDGE ( 'NONE', *, *, #139, .T. ) ;
#128 = LOCAL_TIME ( 17, 4, 22.00000000000000000, #120 ) ;
#129 = VERTEX_POINT ( 'NONE', #47 ) ;
#130 = DIRECTION ( 'NONE',  ( 0.000000000000000000, 0.000000000000000000, 1.000000000000000000 ) ) ;
#131 = CARTESIAN_POINT ( 'NONE',  ( 0.000000000000000000, 0.000000000000000000, 160.0000000000000000 ) ) ;
#132 = CIRCLE ( 'NONE', #22, 5.000000000000000000 ) ;
#133 = PERSON_AND_ORGANIZATION ( #106, #85 ) ;
#134 = DIRECTION ( 'NONE',  ( 1.000000000000000000, 0.000000000000000000, -0.000000000000000000 ) ) ;
#135 = COORDINATED_UNIVERSAL_TIME_OFFSET ( 1, 0, .AHEAD. ) ;
#136 = CC_DESIGN_PERSON_AND_ORGANIZATION_ASSIGNMENT ( #153, #154, ( #251 ) ) ;
#137 = LOCAL_TIME ( 17, 4, 22.00000000000000000, #43 ) ;
#138 = CARTESIAN_POINT ( 'NONE',  ( 0.000000000000000000, 0.000000000000000000, 0.000000000000000000 ) ) ;
#139 = EDGE_CURVE ( 'NONE', #129, #48, #91, .T. ) ;
#140 = CC_DESIGN_APPROVAL ( #125, ( #254 ) ) ;
#141 = PERSON_AND_ORGANIZATION ( #106, #85 ) ;
#142 = APPLICATION_PROTOCOL_DEFINITION ( 'international standard', 'config_control_design', 1994, #144 ) ;
#143 = COORDINATED_UNIVERSAL_TIME_OFFSET ( 1, 0, .AHEAD. ) ;
#144 = APPLICATION_CONTEXT ( 'configuration controlled 3d designs of mechanical parts and assemblies' ) ;
#145 = CARTESIAN_POINT ( 'NONE',  ( 5.000000000000000000, 6.123233995736766282E-16, 0.000000000000000000 ) ) ;
#146 = ORIENTED_EDGE ( 'NONE', *, *, #111, .T. ) ;
#147 = DIRECTION ( 'NONE',  ( -0.000000000000000000, -0.000000000000000000, -1.000000000000000000 ) ) ;
#148 = APPROVAL_DATE_TIME ( #110, #125 ) ;
#149 = EDGE_LOOP ( 'NONE', ( #49, #76 ) ) ;
#150 = CARTESIAN_POINT ( 'NONE',  ( -2.600000000000000089, 0.000000000000000000, 160.0000000000000000 ) ) ;
#151 = ADVANCED_FACE ( 'NONE', ( #59 ), #45, .T. ) ;
#152 = ORIENTED_EDGE ( 'NONE', *, *, #183, .F. ) ;
#153 = PERSON_AND_ORGANIZATION ( #106, #85 ) ;
#154 = PERSON_AND_ORGANIZATION_ROLE ( 'design_owner' ) ;
#155 = AXIS2_PLACEMENT_3D ( 'NONE', #35, #19, #235 ) ;
#156 = CARTESIAN_POINT ( 'NONE',  ( 2.600000000000000089, 3.184081677783118191E-16, 160.0000000000000000 ) ) ;
#157 = CARTESIAN_POINT ( 'NONE',  ( -5.000000000000000000, 0.000000000000000000, 0.000000000000000000 ) ) ;
#158 = EDGE_CURVE ( 'NONE', #84, #79, #253, .T. ) ;
#159 = APPROVAL_STATUS ( 'not_yet_approved' ) ;
#160 = CC_DESIGN_SECURITY_CLASSIFICATION ( #254, ( #188 ) ) ;
#161 = ADVANCED_FACE ( 'NONE', ( #206 ), #29, .T. ) ;
#162 = DATE_AND_TIME ( #90, #232 ) ;
#163 = APPROVAL_ROLE ( '' ) ;
#164 = SECURITY_CLASSIFICATION_LEVEL ( 'unclassified' ) ;
#165 = PERSON_AND_ORGANIZATION ( #106, #85 ) ;
#166 = ORIENTED_EDGE ( 'NONE', *, *, #1, .T. ) ;
#167 = DIRECTION ( 'NONE',  ( 1.000000000000000000, 0.000000000000000000, 0.000000000000000000 ) ) ;
#168 = EDGE_CURVE ( 'NONE', #15, #84, #18, .T. ) ;
#169 = EDGE_LOOP ( 'NONE', ( #124, #62 ) ) ;
#170 = DIRECTION ( 'NONE',  ( 0.000000000000000000, 0.000000000000000000, 1.000000000000000000 ) ) ;
#171 = EDGE_LOOP ( 'NONE', ( #245, #100, #46, #6 ) ) ;
#172 = CLOSED_SHELL ( 'NONE', ( #161, #121, #96, #237, #241, #151, #115 ) ) ;
#173 = DIRECTION ( 'NONE',  ( 1.000000000000000000, 0.000000000000000000, 0.000000000000000000 ) ) ;
#174 = ORIENTED_EDGE ( 'NONE', *, *, #139, .F. ) ;
#175 = CARTESIAN_POINT ( 'NONE',  ( 0.000000000000000000, 0.000000000000000000, 160.0000000000000000 ) ) ;
#176 = APPROVAL_PERSON_ORGANIZATION ( #165, #125, #13 ) ;
#177 = CARTESIAN_POINT ( 'NONE',  ( 5.000000000000000000, 6.123233995736766282E-16, 5.000000000000000000 ) ) ;
#178 = CARTESIAN_POINT ( 'NONE',  ( 0.000000000000000000, 0.000000000000000000, 5.000000000000000000 ) ) ;
#179 = PRODUCT_DEFINITION_SHAPE ( 'NONE', 'NONE',  #72 ) ;
#180 =( NAMED_UNIT ( * ) SI_UNIT ( $, .STERADIAN. ) SOLID_ANGLE_UNIT ( ) );
#181 = AXIS2_PLACEMENT_3D ( 'NONE', #190, #147, #81 ) ;
#182 = DATE_AND_TIME ( #201, #128 ) ;
#183 = EDGE_CURVE ( 'NONE', #82, #15, #132, .T. ) ;
#184 = CALENDAR_DATE ( 2023, 13, 2 ) ;
#185 = ORIENTED_EDGE ( 'NONE', *, *, #111, .F. ) ;
#186 = CC_DESIGN_DATE_AND_TIME_ASSIGNMENT ( #39, #119, ( #72 ) ) ;
#187 = EDGE_LOOP ( 'NONE', ( #185, #174 ) ) ;
#188 = PRODUCT_DEFINITION_FORMATION_WITH_SPECIFIED_SOURCE ( 'LIBOVOLNÝ', '', #251, .NOT_KNOWN. ) ;
#189 = EDGE_LOOP ( 'NONE', ( #247, #204, #127, #225 ) ) ;
#190 = CARTESIAN_POINT ( 'NONE',  ( 0.000000000000000000, 0.000000000000000000, 5.000000000000000000 ) ) ;
#191 = ORIENTED_EDGE ( 'NONE', *, *, #220, .F. ) ;
#192 = VECTOR ( 'NONE', #226, 1000.000000000000000 ) ;
#193 = DIRECTION ( 'NONE',  ( -0.000000000000000000, -0.000000000000000000, -1.000000000000000000 ) ) ;
#194 = ORIENTED_EDGE ( 'NONE', *, *, #53, .T. ) ;
#195 = CARTESIAN_POINT ( 'NONE',  ( 0.000000000000000000, 0.000000000000000000, 160.0000000000000000 ) ) ;
#196 = FACE_OUTER_BOUND ( 'NONE', #248, .T. ) ;
#197 = APPROVAL_STATUS ( 'not_yet_approved' ) ;
#198 = CARTESIAN_POINT ( 'NONE',  ( 0.000000000000000000, 0.000000000000000000, 5.000000000000000000 ) ) ;
#199 = PERSON_AND_ORGANIZATION_ROLE ( 'design_supplier' ) ;
#200 = AXIS2_PLACEMENT_3D ( 'NONE', #61, #193, #8 ) ;
#201 = CALENDAR_DATE ( 2023, 13, 2 ) ;
#202 = CIRCLE ( 'NONE', #58, 5.000000000000000000 ) ;
#203 = EDGE_CURVE ( 'NONE', #9, #129, #99, .T. ) ;
#204 = ORIENTED_EDGE ( 'NONE', *, *, #203, .T. ) ;
#205 = ORIENTED_EDGE ( 'NONE', *, *, #168, .F. ) ;
#206 = FACE_OUTER_BOUND ( 'NONE', #189, .T. ) ;
#207 = EDGE_LOOP ( 'NONE', ( #205, #152, #194, #57 ) ) ;
#208 = DIRECTION ( 'NONE',  ( 0.000000000000000000, 0.000000000000000000, 1.000000000000000000 ) ) ;
#209 = CARTESIAN_POINT ( 'NONE',  ( 2.600000000000000089, 3.184081677783118191E-16, 160.0000000000000000 ) ) ;
#210 = AXIS2_PLACEMENT_3D ( 'NONE', #175, #130, #80 ) ;
#211 = CARTESIAN_POINT ( 'NONE',  ( 0.000000000000000000, 0.000000000000000000, 160.0000000000000000 ) ) ;
#212 = CYLINDRICAL_SURFACE ( 'NONE', #181, 5.000000000000000000 ) ;
#213 = DIRECTION ( 'NONE',  ( -0.000000000000000000, -0.000000000000000000, -1.000000000000000000 ) ) ;
#214 = CIRCLE ( 'NONE', #94, 5.000000000000000000 ) ;
#215 = FACE_BOUND ( 'NONE', #187, .T. ) ;
#216 = AXIS2_PLACEMENT_3D ( 'NONE', #50, #170, #173 ) ;
#217 = CC_DESIGN_APPROVAL ( #231, ( #72 ) ) ;
#218 =( NAMED_UNIT ( * ) PLANE_ANGLE_UNIT ( ) SI_UNIT ( $, .RADIAN. ) );
#219 = CARTESIAN_POINT ( 'NONE',  ( 0.000000000000000000, 0.000000000000000000, 0.000000000000000000 ) ) ;
#220 = EDGE_CURVE ( 'NONE', #79, #84, #202, .T. ) ;
#221 = CARTESIAN_POINT ( 'NONE',  ( -2.600000000000000089, 0.000000000000000000, 5.000000000000000000 ) ) ;
#222 = DIRECTION ( 'NONE',  ( 1.000000000000000000, 0.000000000000000000, -0.000000000000000000 ) ) ;
#223 = ORIENTED_EDGE ( 'NONE', *, *, #103, .F. ) ;
#224 = PLANE ( 'NONE',  #34 ) ;
#225 = ORIENTED_EDGE ( 'NONE', *, *, #1, .F. ) ;
#226 = DIRECTION ( 'NONE',  ( -0.000000000000000000, -0.000000000000000000, -1.000000000000000000 ) ) ;
#227 = DIRECTION ( 'NONE',  ( -1.000000000000000000, 0.000000000000000000, 0.000000000000000000 ) ) ;
#228 = CARTESIAN_POINT ( 'NONE',  ( 0.000000000000000000, 0.000000000000000000, 5.000000000000000000 ) ) ;
#229 = CIRCLE ( 'NONE', #216, 2.600000000000000089 ) ;
#230 = DIRECTION ( 'NONE',  ( 0.000000000000000000, 0.000000000000000000, 1.000000000000000000 ) ) ;
#231 = APPROVAL ( #112, 'NEURÈENÝ' ) ;
#232 = LOCAL_TIME ( 17, 4, 22.00000000000000000, #135 ) ;
#233 = DIRECTION ( 'NONE',  ( 0.000000000000000000, 0.000000000000000000, 1.000000000000000000 ) ) ;
#234 = PERSON_AND_ORGANIZATION_ROLE ( 'creator' ) ;
#235 = DIRECTION ( 'NONE',  ( 1.000000000000000000, 0.000000000000000000, -0.000000000000000000 ) ) ;
#236 = AXIS2_PLACEMENT_3D ( 'NONE', #178, #208, #167 ) ;
#237 = ADVANCED_FACE ( 'NONE', ( #215, #36 ), #117, .T. ) ;
#238 = APPROVAL_DATE_TIME ( #74, #37 ) ;
#239 = CALENDAR_DATE ( 2023, 13, 2 ) ;
#240 = LOCAL_TIME ( 17, 4, 22.00000000000000000, #73 ) ;
#241 = ADVANCED_FACE ( 'NONE', ( #196 ), #92, .F. ) ;
#242 = EDGE_LOOP ( 'NONE', ( #104, #223, #166, #146 ) ) ;
#243 = DESIGN_CONTEXT ( 'detailed design', #33, 'design' ) ;
#244 = FACE_OUTER_BOUND ( 'NONE', #149, .T. ) ;
#245 = ORIENTED_EDGE ( 'NONE', *, *, #75, .F. ) ;
#246 = DIRECTION ( 'NONE',  ( 0.000000000000000000, 0.000000000000000000, 1.000000000000000000 ) ) ;
#247 = ORIENTED_EDGE ( 'NONE', *, *, #93, .F. ) ;
#248 = EDGE_LOOP ( 'NONE', ( #191, #26 ) ) ;
#249 = CC_DESIGN_APPROVAL ( #37, ( #188 ) ) ;
#250 = CARTESIAN_POINT ( 'NONE',  ( -2.600000000000000089, 0.000000000000000000, 160.0000000000000000 ) ) ;
#251 = PRODUCT ( 'b175', 'b175', '', ( #98 ) ) ;
#252 = DIRECTION ( 'NONE',  ( 1.000000000000000000, 0.000000000000000000, 0.000000000000000000 ) ) ;
#253 = CIRCLE ( 'NONE', #109, 5.000000000000000000 ) ;
#254 = SECURITY_CLASSIFICATION ( '', '', #164 ) ;
#255 = DIRECTION ( 'NONE',  ( 0.000000000000000000, 0.000000000000000000, 1.000000000000000000 ) ) ;
ENDSEC;
END-ISO-10303-21;
