ISO-10303-21;
HEADER;
FILE_DESCRIPTION (( 'STEP AP203' ),
    '1' );
FILE_NAME ('d6e2.STEP',
    '2023-02-13T17:25:53',
    ( '' ),
    ( '' ),
    'SwSTEP 2.0',
    'SolidWorks 2019',
    '' );
FILE_SCHEMA (( 'CONFIG_CONTROL_DESIGN' ));
ENDSEC;

DATA;
#1 = EDGE_CURVE ( 'NONE', #64, #6, #87, .T. ) ;
#2 = AXIS2_PLACEMENT_3D ( 'NONE', #122, #249, #9 ) ;
#3 = AXIS2_PLACEMENT_3D ( 'NONE', #128, #204, #237 ) ;
#4 = ORIENTED_EDGE ( 'NONE', *, *, #163, .T. ) ;
#5 = ORIENTED_EDGE ( 'NONE', *, *, #93, .T. ) ;
#6 = VERTEX_POINT ( 'NONE', #169 ) ;
#7 = AXIS2_PLACEMENT_3D ( 'NONE', #77, #15, #251 ) ;
#8 = APPLICATION_PROTOCOL_DEFINITION ( 'international standard', 'config_control_design', 1994, #252 ) ;
#9 = DIRECTION ( 'NONE',  ( 1.000000000000000000, 0.000000000000000000, 0.000000000000000000 ) ) ;
#10 = DIRECTION ( 'NONE',  ( 0.000000000000000000, 0.000000000000000000, 1.000000000000000000 ) ) ;
#11 = CC_DESIGN_PERSON_AND_ORGANIZATION_ASSIGNMENT ( #151, #76, ( #245 ) ) ;
#12 = CIRCLE ( 'NONE', #48, 0.6999999999999999556 ) ;
#13 = DIRECTION ( 'NONE',  ( -0.000000000000000000, -0.000000000000000000, -1.000000000000000000 ) ) ;
#14 = APPROVAL_DATE_TIME ( #107, #142 ) ;
#15 = DIRECTION ( 'NONE',  ( 0.000000000000000000, 0.000000000000000000, 1.000000000000000000 ) ) ;
#16 = DIRECTION ( 'NONE',  ( -0.000000000000000000, -0.000000000000000000, -1.000000000000000000 ) ) ;
#17 = CARTESIAN_POINT ( 'NONE',  ( 1.500000000000000222, 1.836970198721030181E-16, 0.000000000000000000 ) ) ;
#18 = APPLICATION_PROTOCOL_DEFINITION ( 'international standard', 'config_control_design', 1994, #22 ) ;
#19 = CIRCLE ( 'NONE', #195, 1.500000000000000222 ) ;
#20 = EDGE_CURVE ( 'NONE', #117, #132, #226, .T. ) ;
#21 = CALENDAR_DATE ( 2023, 13, 2 ) ;
#22 = APPLICATION_CONTEXT ( 'configuration controlled 3d designs of mechanical parts and assemblies' ) ;
#23 = APPROVAL_PERSON_ORGANIZATION ( #58, #174, #212 ) ;
#24 = CALENDAR_DATE ( 2023, 13, 2 ) ;
#25 = ORIENTED_EDGE ( 'NONE', *, *, #109, .F. ) ;
#26 = APPROVAL_DATE_TIME ( #82, #174 ) ;
#27 = EDGE_LOOP ( 'NONE', ( #246, #25, #247, #159 ) ) ;
#28 = PERSON_AND_ORGANIZATION ( #59, #248 ) ;
#29 = APPROVAL_ROLE ( '' ) ;
#30 = CARTESIAN_POINT ( 'NONE',  ( 0.6999999999999999556, 8.572527594031471957E-17, 100.0000000000000000 ) ) ;
#31 = DIRECTION ( 'NONE',  ( 1.000000000000000000, 0.000000000000000000, 0.000000000000000000 ) ) ;
#32 = CIRCLE ( 'NONE', #192, 0.6999999999999999556 ) ;
#33 = VECTOR ( 'NONE', #16, 1000.000000000000000 ) ;
#34 = CALENDAR_DATE ( 2023, 13, 2 ) ;
#35 = FACE_OUTER_BOUND ( 'NONE', #227, .T. ) ;
#36 = AXIS2_PLACEMENT_3D ( 'NONE', #69, #10, #146 ) ;
#37 = DIRECTION ( 'NONE',  ( 1.000000000000000000, 0.000000000000000000, 0.000000000000000000 ) ) ;
#38 = COORDINATED_UNIVERSAL_TIME_OFFSET ( 1, 0, .AHEAD. ) ;
#39 = FACE_OUTER_BOUND ( 'NONE', #74, .T. ) ;
#40 = PRODUCT_DEFINITION_SHAPE ( 'NONE', 'NONE',  #245 ) ;
#41 = DIRECTION ( 'NONE',  ( 0.000000000000000000, 0.000000000000000000, 1.000000000000000000 ) ) ;
#42 = CARTESIAN_POINT ( 'NONE',  ( -1.500000000000000222, 0.000000000000000000, 0.000000000000000000 ) ) ;
#43 = PRODUCT_DEFINITION_FORMATION_WITH_SPECIFIED_SOURCE ( 'LIBOVOLNÝ', '', #185, .NOT_KNOWN. ) ;
#44 = DATE_TIME_ROLE ( 'classification_date' ) ;
#45 = ORIENTED_EDGE ( 'NONE', *, *, #255, .T. ) ;
#46 = ADVANCED_FACE ( 'NONE', ( #123 ), #198, .T. ) ;
#47 = ORIENTED_EDGE ( 'NONE', *, *, #209, .T. ) ;
#48 = AXIS2_PLACEMENT_3D ( 'NONE', #114, #166, #182 ) ;
#49 =( NAMED_UNIT ( * ) SI_UNIT ( $, .STERADIAN. ) SOLID_ANGLE_UNIT ( ) );
#50 = ORIENTED_EDGE ( 'NONE', *, *, #179, .F. ) ;
#51 = ORIENTED_EDGE ( 'NONE', *, *, #20, .T. ) ;
#52 = CARTESIAN_POINT ( 'NONE',  ( 0.000000000000000000, 0.000000000000000000, 1.500000000000000000 ) ) ;
#53 = FACE_OUTER_BOUND ( 'NONE', #183, .T. ) ;
#54 = LINE ( 'NONE', #126, #207 ) ;
#55 = COORDINATED_UNIVERSAL_TIME_OFFSET ( 1, 0, .AHEAD. ) ;
#56 = CARTESIAN_POINT ( 'NONE',  ( 0.000000000000000000, 0.000000000000000000, 1.500000000000000000 ) ) ;
#57 = DATE_AND_TIME ( #172, #129 ) ;
#58 = PERSON_AND_ORGANIZATION ( #59, #248 ) ;
#59 = PERSON ( 'NEURÈENÝ', 'NEURÈENÝ', 'NEURÈENÝ', ('NEURÈENÝ'), ('NEURÈENÝ'), ('NEURÈENÝ') ) ;
#60 = CIRCLE ( 'NONE', #7, 1.500000000000000222 ) ;
#61 = VERTEX_POINT ( 'NONE', #42 ) ;
#62 = EDGE_CURVE ( 'NONE', #6, #64, #12, .T. ) ;
#63 = AXIS2_PLACEMENT_3D ( 'NONE', #88, #167, #203 ) ;
#64 = VERTEX_POINT ( 'NONE', #66 ) ;
#65 = AXIS2_PLACEMENT_3D ( 'NONE', #72, #233, #91 ) ;
#66 = CARTESIAN_POINT ( 'NONE',  ( -0.6999999999999999556, 0.000000000000000000, 1.500000000000000000 ) ) ;
#67 = EDGE_CURVE ( 'NONE', #117, #61, #253, .T. ) ;
#68 = EDGE_CURVE ( 'NONE', #132, #117, #80, .T. ) ;
#69 = CARTESIAN_POINT ( 'NONE',  ( 0.000000000000000000, 0.000000000000000000, 1.500000000000000000 ) ) ;
#70 = PERSON_AND_ORGANIZATION ( #59, #248 ) ;
#71 = AXIS2_PLACEMENT_3D ( 'NONE', #102, #90, #78 ) ;
#72 = CARTESIAN_POINT ( 'NONE',  ( 0.000000000000000000, 0.000000000000000000, 1.500000000000000000 ) ) ;
#73 =( NAMED_UNIT ( * ) PLANE_ANGLE_UNIT ( ) SI_UNIT ( $, .RADIAN. ) );
#74 = EDGE_LOOP ( 'NONE', ( #98, #5, #158, #193 ) ) ;
#75 = LINE ( 'NONE', #30, #33 ) ;
#76 = PERSON_AND_ORGANIZATION_ROLE ( 'creator' ) ;
#77 = CARTESIAN_POINT ( 'NONE',  ( 0.000000000000000000, 0.000000000000000000, 0.000000000000000000 ) ) ;
#78 = DIRECTION ( 'NONE',  ( 1.000000000000000000, 0.000000000000000000, 0.000000000000000000 ) ) ;
#79 = DIRECTION ( 'NONE',  ( 0.000000000000000000, 0.000000000000000000, 1.000000000000000000 ) ) ;
#80 = CIRCLE ( 'NONE', #2, 1.500000000000000222 ) ;
#81 = AXIS2_PLACEMENT_3D ( 'NONE', #216, #41, #37 ) ;
#82 = DATE_AND_TIME ( #133, #162 ) ;
#83 = ADVANCED_FACE ( 'NONE', ( #139 ), #165, .T. ) ;
#84 = EDGE_LOOP ( 'NONE', ( #50, #121, #223, #4 ) ) ;
#85 = ORIENTED_EDGE ( 'NONE', *, *, #67, .F. ) ;
#86 =( GEOMETRIC_REPRESENTATION_CONTEXT ( 3 ) GLOBAL_UNCERTAINTY_ASSIGNED_CONTEXT ( ( #99 ) ) GLOBAL_UNIT_ASSIGNED_CONTEXT ( ( #138, #73, #49 ) ) REPRESENTATION_CONTEXT ( 'NONE', 'WORKASPACE' ) );
#87 = CIRCLE ( 'NONE', #71, 0.6999999999999999556 ) ;
#88 = CARTESIAN_POINT ( 'NONE',  ( 0.000000000000000000, 0.000000000000000000, 100.0000000000000000 ) ) ;
#89 = APPROVAL_PERSON_ORGANIZATION ( #94, #142, #29 ) ;
#90 = DIRECTION ( 'NONE',  ( 0.000000000000000000, 0.000000000000000000, 1.000000000000000000 ) ) ;
#91 = DIRECTION ( 'NONE',  ( -1.000000000000000000, 0.000000000000000000, 0.000000000000000000 ) ) ;
#92 = ORIENTED_EDGE ( 'NONE', *, *, #163, .F. ) ;
#93 = EDGE_CURVE ( 'NONE', #208, #6, #75, .T. ) ;
#94 = PERSON_AND_ORGANIZATION ( #59, #248 ) ;
#95 = VERTEX_POINT ( 'NONE', #17 ) ;
#96 = EDGE_LOOP ( 'NONE', ( #224, #100, #47, #85 ) ) ;
#97 = LOCAL_TIME ( 18, 25, 53.00000000000000000, #254 ) ;
#98 = ORIENTED_EDGE ( 'NONE', *, *, #255, .F. ) ;
#99 = UNCERTAINTY_MEASURE_WITH_UNIT (LENGTH_MEASURE( 1.000000000000000082E-05 ), #138, 'distance_accuracy_value', 'NONE');
#100 = ORIENTED_EDGE ( 'NONE', *, *, #179, .T. ) ;
#101 = DIRECTION ( 'NONE',  ( -0.000000000000000000, -0.000000000000000000, -1.000000000000000000 ) ) ;
#102 = CARTESIAN_POINT ( 'NONE',  ( 0.000000000000000000, 0.000000000000000000, 1.500000000000000000 ) ) ;
#103 = LOCAL_TIME ( 18, 25, 53.00000000000000000, #55 ) ;
#104 = ORIENTED_EDGE ( 'NONE', *, *, #209, .F. ) ;
#105 = LINE ( 'NONE', #171, #168 ) ;
#106 = DIRECTION ( 'NONE',  ( -0.000000000000000000, -0.000000000000000000, -1.000000000000000000 ) ) ;
#107 = DATE_AND_TIME ( #34, #97 ) ;
#108 = FACE_OUTER_BOUND ( 'NONE', #84, .T. ) ;
#109 = EDGE_CURVE ( 'NONE', #175, #208, #211, .T. ) ;
#110 = CARTESIAN_POINT ( 'NONE',  ( 0.000000000000000000, 0.000000000000000000, 100.0000000000000000 ) ) ;
#111 = PERSON_AND_ORGANIZATION ( #59, #248 ) ;
#112 = PRODUCT_RELATED_PRODUCT_CATEGORY ( 'detail', '', ( #185 ) ) ;
#113 = PERSON_AND_ORGANIZATION_ROLE ( 'creator' ) ;
#114 = CARTESIAN_POINT ( 'NONE',  ( 0.000000000000000000, 0.000000000000000000, 1.500000000000000000 ) ) ;
#115 = PERSON_AND_ORGANIZATION_ROLE ( 'classification_officer' ) ;
#116 = PERSON_AND_ORGANIZATION_ROLE ( 'design_owner' ) ;
#117 = VERTEX_POINT ( 'NONE', #147 ) ;
#118 = CC_DESIGN_DATE_AND_TIME_ASSIGNMENT ( #57, #188, ( #245 ) ) ;
#119 = ORIENTED_EDGE ( 'NONE', *, *, #62, .F. ) ;
#120 = COORDINATED_UNIVERSAL_TIME_OFFSET ( 1, 0, .AHEAD. ) ;
#121 = ORIENTED_EDGE ( 'NONE', *, *, #20, .F. ) ;
#122 = CARTESIAN_POINT ( 'NONE',  ( 0.000000000000000000, 0.000000000000000000, 1.500000000000000000 ) ) ;
#123 = FACE_OUTER_BOUND ( 'NONE', #27, .T. ) ;
#124 = CC_DESIGN_APPROVAL ( #202, ( #215 ) ) ;
#125 = CC_DESIGN_PERSON_AND_ORGANIZATION_ASSIGNMENT ( #28, #113, ( #43 ) ) ;
#126 = CARTESIAN_POINT ( 'NONE',  ( -0.6999999999999999556, 0.000000000000000000, 100.0000000000000000 ) ) ;
#127 = DIRECTION ( 'NONE',  ( 0.000000000000000000, 0.000000000000000000, 1.000000000000000000 ) ) ;
#128 = CARTESIAN_POINT ( 'NONE',  ( 0.000000000000000000, 0.000000000000000000, 0.000000000000000000 ) ) ;
#129 = LOCAL_TIME ( 18, 25, 53.00000000000000000, #240 ) ;
#130 = DIRECTION ( 'NONE',  ( -1.000000000000000000, 0.000000000000000000, 0.000000000000000000 ) ) ;
#131 = AXIS2_PLACEMENT_3D ( 'NONE', #56, #106, #130 ) ;
#132 = VERTEX_POINT ( 'NONE', #238 ) ;
#133 = CALENDAR_DATE ( 2023, 13, 2 ) ;
#134 = CARTESIAN_POINT ( 'NONE',  ( 0.000000000000000000, 0.000000000000000000, 100.0000000000000000 ) ) ;
#135 = AXIS2_PLACEMENT_3D ( 'NONE', #178, #13, #141 ) ;
#136 = APPROVAL_STATUS ( 'not_yet_approved' ) ;
#137 = CC_DESIGN_PERSON_AND_ORGANIZATION_ASSIGNMENT ( #213, #115, ( #215 ) ) ;
#138 =( LENGTH_UNIT ( ) NAMED_UNIT ( * ) SI_UNIT ( .MILLI., .METRE. ) );
#139 = FACE_OUTER_BOUND ( 'NONE', #96, .T. ) ;
#140 = DIRECTION ( 'NONE',  ( 1.000000000000000000, 0.000000000000000000, 0.000000000000000000 ) ) ;
#141 = DIRECTION ( 'NONE',  ( -1.000000000000000000, 0.000000000000000000, 0.000000000000000000 ) ) ;
#142 = APPROVAL ( #136, 'NEURÈENÝ' ) ;
#143 = AXIS2_PLACEMENT_3D ( 'NONE', #229, #196, #31 ) ;
#144 = ORIENTED_EDGE ( 'NONE', *, *, #68, .T. ) ;
#145 = CARTESIAN_POINT ( 'NONE',  ( -1.500000000000000222, 0.000000000000000000, 1.500000000000000000 ) ) ;
#146 = DIRECTION ( 'NONE',  ( 1.000000000000000000, 0.000000000000000000, -0.000000000000000000 ) ) ;
#147 = CARTESIAN_POINT ( 'NONE',  ( -1.500000000000000222, 0.000000000000000000, 1.500000000000000000 ) ) ;
#148 = CC_DESIGN_DATE_AND_TIME_ASSIGNMENT ( #177, #44, ( #215 ) ) ;
#149 = PLANE ( 'NONE',  #3 ) ;
#150 = CYLINDRICAL_SURFACE ( 'NONE', #131, 1.500000000000000222 ) ;
#151 = PERSON_AND_ORGANIZATION ( #59, #248 ) ;
#152 = AXIS2_PLACEMENT_3D ( 'NONE', #134, #219, #217 ) ;
#153 = CARTESIAN_POINT ( 'NONE',  ( 0.000000000000000000, 0.000000000000000000, 0.000000000000000000 ) ) ;
#154 = PERSON_AND_ORGANIZATION_ROLE ( 'design_supplier' ) ;
#155 = CC_DESIGN_PERSON_AND_ORGANIZATION_ASSIGNMENT ( #111, #154, ( #43 ) ) ;
#156 = APPROVAL_DATE_TIME ( #194, #202 ) ;
#157 = DESIGN_CONTEXT ( 'detailed design', #22, 'design' ) ;
#158 = ORIENTED_EDGE ( 'NONE', *, *, #62, .T. ) ;
#159 = ORIENTED_EDGE ( 'NONE', *, *, #1, .T. ) ;
#160 = EDGE_LOOP ( 'NONE', ( #51, #144 ) ) ;
#161 = MECHANICAL_CONTEXT ( 'NONE', #252, 'mechanical' ) ;
#162 = LOCAL_TIME ( 18, 25, 53.00000000000000000, #38 ) ;
#163 = EDGE_CURVE ( 'NONE', #61, #95, #19, .T. ) ;
#164 = FACE_BOUND ( 'NONE', #190, .T. ) ;
#165 = CYLINDRICAL_SURFACE ( 'NONE', #65, 1.500000000000000222 ) ;
#166 = DIRECTION ( 'NONE',  ( 0.000000000000000000, 0.000000000000000000, 1.000000000000000000 ) ) ;
#167 = DIRECTION ( 'NONE',  ( 0.000000000000000000, 0.000000000000000000, 1.000000000000000000 ) ) ;
#168 = VECTOR ( 'NONE', #214, 1000.000000000000000 ) ;
#169 = CARTESIAN_POINT ( 'NONE',  ( 0.6999999999999999556, 8.572527594031471957E-17, 1.500000000000000000 ) ) ;
#170 = FACE_OUTER_BOUND ( 'NONE', #160, .T. ) ;
#171 = CARTESIAN_POINT ( 'NONE',  ( 1.500000000000000222, 1.836970198721030181E-16, 1.500000000000000000 ) ) ;
#172 = CALENDAR_DATE ( 2023, 13, 2 ) ;
#173 = SECURITY_CLASSIFICATION_LEVEL ( 'unclassified' ) ;
#174 = APPROVAL ( #235, 'NEURÈENÝ' ) ;
#175 = VERTEX_POINT ( 'NONE', #236 ) ;
#176 = ADVANCED_FACE ( 'NONE', ( #108 ), #150, .T. ) ;
#177 = DATE_AND_TIME ( #24, #103 ) ;
#178 = CARTESIAN_POINT ( 'NONE',  ( 0.000000000000000000, 0.000000000000000000, 100.0000000000000000 ) ) ;
#179 = EDGE_CURVE ( 'NONE', #132, #95, #105, .T. ) ;
#180 = CLOSED_SHELL ( 'NONE', ( #191, #83, #176, #199, #231, #46, #220 ) ) ;
#181 = ORIENTED_EDGE ( 'NONE', *, *, #1, .F. ) ;
#182 = DIRECTION ( 'NONE',  ( 1.000000000000000000, 0.000000000000000000, 0.000000000000000000 ) ) ;
#183 = EDGE_LOOP ( 'NONE', ( #250, #45 ) ) ;
#184 = CC_DESIGN_PERSON_AND_ORGANIZATION_ASSIGNMENT ( #70, #116, ( #185 ) ) ;
#185 = PRODUCT ( 'd6e2', 'd6e2', '', ( #161 ) ) ;
#186 = PLANE ( 'NONE',  #63 ) ;
#187 = VECTOR ( 'NONE', #234, 1000.000000000000000 ) ;
#188 = DATE_TIME_ROLE ( 'creation_date' ) ;
#189 = DIRECTION ( 'NONE',  ( 0.000000000000000000, 0.000000000000000000, 1.000000000000000000 ) ) ;
#190 = EDGE_LOOP ( 'NONE', ( #181, #119 ) ) ;
#191 = ADVANCED_FACE ( 'NONE', ( #39 ), #242, .T. ) ;
#192 = AXIS2_PLACEMENT_3D ( 'NONE', #110, #189, #228 ) ;
#193 = ORIENTED_EDGE ( 'NONE', *, *, #197, .F. ) ;
#194 = DATE_AND_TIME ( #21, #222 ) ;
#195 = AXIS2_PLACEMENT_3D ( 'NONE', #153, #79, #206 ) ;
#196 = DIRECTION ( 'NONE',  ( 0.000000000000000000, 0.000000000000000000, 1.000000000000000000 ) ) ;
#197 = EDGE_CURVE ( 'NONE', #175, #64, #54, .T. ) ;
#198 = CYLINDRICAL_SURFACE ( 'NONE', #152, 0.6999999999999999556 ) ;
#199 = ADVANCED_FACE ( 'NONE', ( #164, #170 ), #201, .T. ) ;
#200 = CC_DESIGN_SECURITY_CLASSIFICATION ( #215, ( #43 ) ) ;
#201 = PLANE ( 'NONE',  #36 ) ;
#202 = APPROVAL ( #205, 'NEURÈENÝ' ) ;
#203 = DIRECTION ( 'NONE',  ( 1.000000000000000000, 0.000000000000000000, -0.000000000000000000 ) ) ;
#204 = DIRECTION ( 'NONE',  ( 0.000000000000000000, 0.000000000000000000, 1.000000000000000000 ) ) ;
#205 = APPROVAL_STATUS ( 'not_yet_approved' ) ;
#206 = DIRECTION ( 'NONE',  ( 1.000000000000000000, 0.000000000000000000, 0.000000000000000000 ) ) ;
#207 = VECTOR ( 'NONE', #101, 1000.000000000000000 ) ;
#208 = VERTEX_POINT ( 'NONE', #230 ) ;
#209 = EDGE_CURVE ( 'NONE', #95, #61, #60, .T. ) ;
#210 = AXIS2_PLACEMENT_3D ( 'NONE', #52, #127, #140 ) ;
#211 = CIRCLE ( 'NONE', #81, 0.6999999999999999556 ) ;
#212 = APPROVAL_ROLE ( '' ) ;
#213 = PERSON_AND_ORGANIZATION ( #59, #248 ) ;
#214 = DIRECTION ( 'NONE',  ( -0.000000000000000000, -0.000000000000000000, -1.000000000000000000 ) ) ;
#215 = SECURITY_CLASSIFICATION ( '', '', #173 ) ;
#216 = CARTESIAN_POINT ( 'NONE',  ( 0.000000000000000000, 0.000000000000000000, 100.0000000000000000 ) ) ;
#217 = DIRECTION ( 'NONE',  ( -1.000000000000000000, 0.000000000000000000, 0.000000000000000000 ) ) ;
#218 = APPROVAL_ROLE ( '' ) ;
#219 = DIRECTION ( 'NONE',  ( -0.000000000000000000, -0.000000000000000000, -1.000000000000000000 ) ) ;
#220 = ADVANCED_FACE ( 'NONE', ( #53 ), #186, .T. ) ;
#221 = PERSON_AND_ORGANIZATION ( #59, #248 ) ;
#222 = LOCAL_TIME ( 18, 25, 53.00000000000000000, #120 ) ;
#223 = ORIENTED_EDGE ( 'NONE', *, *, #67, .T. ) ;
#224 = ORIENTED_EDGE ( 'NONE', *, *, #68, .F. ) ;
#225 = ADVANCED_BREP_SHAPE_REPRESENTATION ( 'd6e2', ( #241, #143 ), #86 ) ;
#226 = CIRCLE ( 'NONE', #210, 1.500000000000000222 ) ;
#227 = EDGE_LOOP ( 'NONE', ( #92, #104 ) ) ;
#228 = DIRECTION ( 'NONE',  ( 1.000000000000000000, 0.000000000000000000, 0.000000000000000000 ) ) ;
#229 = CARTESIAN_POINT ( 'NONE',  ( 0.000000000000000000, 0.000000000000000000, 0.000000000000000000 ) ) ;
#230 = CARTESIAN_POINT ( 'NONE',  ( 0.6999999999999999556, 8.572527594031471957E-17, 100.0000000000000000 ) ) ;
#231 = ADVANCED_FACE ( 'NONE', ( #35 ), #149, .F. ) ;
#232 = CC_DESIGN_APPROVAL ( #142, ( #245 ) ) ;
#233 = DIRECTION ( 'NONE',  ( -0.000000000000000000, -0.000000000000000000, -1.000000000000000000 ) ) ;
#234 = DIRECTION ( 'NONE',  ( -0.000000000000000000, -0.000000000000000000, -1.000000000000000000 ) ) ;
#235 = APPROVAL_STATUS ( 'not_yet_approved' ) ;
#236 = CARTESIAN_POINT ( 'NONE',  ( -0.6999999999999999556, 0.000000000000000000, 100.0000000000000000 ) ) ;
#237 = DIRECTION ( 'NONE',  ( 1.000000000000000000, 0.000000000000000000, -0.000000000000000000 ) ) ;
#238 = CARTESIAN_POINT ( 'NONE',  ( 1.500000000000000222, 1.836970198721030181E-16, 1.500000000000000000 ) ) ;
#239 = CC_DESIGN_APPROVAL ( #174, ( #43 ) ) ;
#240 = COORDINATED_UNIVERSAL_TIME_OFFSET ( 1, 0, .AHEAD. ) ;
#241 = MANIFOLD_SOLID_BREP ( 'Pøidat vysunutím3', #180 ) ;
#242 = CYLINDRICAL_SURFACE ( 'NONE', #135, 0.6999999999999999556 ) ;
#243 = SHAPE_DEFINITION_REPRESENTATION ( #40, #225 ) ;
#244 = APPROVAL_PERSON_ORGANIZATION ( #221, #202, #218 ) ;
#245 = PRODUCT_DEFINITION ( 'NEZNÁMÝ', '', #43, #157 ) ;
#246 = ORIENTED_EDGE ( 'NONE', *, *, #93, .F. ) ;
#247 = ORIENTED_EDGE ( 'NONE', *, *, #197, .T. ) ;
#248 = ORGANIZATION ( 'NEURÈENÝ', 'NEURÈENÝ', '' ) ;
#249 = DIRECTION ( 'NONE',  ( 0.000000000000000000, 0.000000000000000000, 1.000000000000000000 ) ) ;
#250 = ORIENTED_EDGE ( 'NONE', *, *, #109, .T. ) ;
#251 = DIRECTION ( 'NONE',  ( 1.000000000000000000, 0.000000000000000000, 0.000000000000000000 ) ) ;
#252 = APPLICATION_CONTEXT ( 'configuration controlled 3d designs of mechanical parts and assemblies' ) ;
#253 = LINE ( 'NONE', #145, #187 ) ;
#254 = COORDINATED_UNIVERSAL_TIME_OFFSET ( 1, 0, .AHEAD. ) ;
#255 = EDGE_CURVE ( 'NONE', #208, #175, #32, .T. ) ;
ENDSEC;
END-ISO-10303-21;
