ISO-10303-21;
HEADER;
FILE_DESCRIPTION (( 'STEP AP203' ),
    '1' );
FILE_NAME ('9cdf.STEP',
    '2023-02-13T16:38:00',
    ( '' ),
    ( '' ),
    'SwSTEP 2.0',
    'SolidWorks 2019',
    '' );
FILE_SCHEMA (( 'CONFIG_CONTROL_DESIGN' ));
ENDSEC;

DATA;
#1 = COORDINATED_UNIVERSAL_TIME_OFFSET ( 1, 0, .AHEAD. ) ;
#2 = AXIS2_PLACEMENT_3D ( 'NONE', #56, #244, #77 ) ;
#3 = APPROVAL_ROLE ( '' ) ;
#4 = VERTEX_POINT ( 'NONE', #109 ) ;
#5 = SECURITY_CLASSIFICATION_LEVEL ( 'unclassified' ) ;
#6 = EDGE_CURVE ( 'NONE', #110, #91, #30, .T. ) ;
#7 = PRODUCT ( '9cdf', '9cdf', '', ( #252 ) ) ;
#8 = PERSON_AND_ORGANIZATION ( #254, #236 ) ;
#9 =( GEOMETRIC_REPRESENTATION_CONTEXT ( 3 ) GLOBAL_UNCERTAINTY_ASSIGNED_CONTEXT ( ( #249 ) ) GLOBAL_UNIT_ASSIGNED_CONTEXT ( ( #235, #98, #230 ) ) REPRESENTATION_CONTEXT ( 'NONE', 'WORKASPACE' ) );
#10 = ORIENTED_EDGE ( 'NONE', *, *, #143, .T. ) ;
#11 = CARTESIAN_POINT ( 'NONE',  ( 0.000000000000000000, 0.000000000000000000, 3.000000000000000000 ) ) ;
#12 = ORIENTED_EDGE ( 'NONE', *, *, #127, .F. ) ;
#13 = EDGE_CURVE ( 'NONE', #4, #27, #154, .T. ) ;
#14 = LINE ( 'NONE', #165, #146 ) ;
#15 = ADVANCED_FACE ( 'NONE', ( #250 ), #167, .T. ) ;
#16 = EDGE_LOOP ( 'NONE', ( #192, #95, #206, #46 ) ) ;
#17 = CARTESIAN_POINT ( 'NONE',  ( 3.000000000000000444, 3.673940397442060361E-16, 3.000000000000000000 ) ) ;
#18 = CC_DESIGN_PERSON_AND_ORGANIZATION_ASSIGNMENT ( #28, #162, ( #65 ) ) ;
#19 = ADVANCED_FACE ( 'NONE', ( #72 ), #128, .T. ) ;
#20 = DIRECTION ( 'NONE',  ( 0.000000000000000000, 0.000000000000000000, 1.000000000000000000 ) ) ;
#21 = CIRCLE ( 'NONE', #240, 3.000000000000000444 ) ;
#22 = CARTESIAN_POINT ( 'NONE',  ( 0.000000000000000000, 0.000000000000000000, 0.000000000000000000 ) ) ;
#23 = DIRECTION ( 'NONE',  ( 0.000000000000000000, 0.000000000000000000, 1.000000000000000000 ) ) ;
#24 = COORDINATED_UNIVERSAL_TIME_OFFSET ( 1, 0, .AHEAD. ) ;
#25 = APPROVAL_PERSON_ORGANIZATION ( #218, #207, #201 ) ;
#26 = APPROVAL_DATE_TIME ( #160, #164 ) ;
#27 = VERTEX_POINT ( 'NONE', #224 ) ;
#28 = PERSON_AND_ORGANIZATION ( #254, #236 ) ;
#29 = ORIENTED_EDGE ( 'NONE', *, *, #6, .T. ) ;
#30 = CIRCLE ( 'NONE', #172, 1.750000000000000000 ) ;
#31 = LOCAL_TIME ( 17, 38, 0.000000000000000000, #44 ) ;
#32 = ADVANCED_FACE ( 'NONE', ( #123 ), #58, .T. ) ;
#33 = DIRECTION ( 'NONE',  ( 1.000000000000000000, 0.000000000000000000, -0.000000000000000000 ) ) ;
#34 = DIRECTION ( 'NONE',  ( 0.000000000000000000, 0.000000000000000000, 1.000000000000000000 ) ) ;
#35 = CC_DESIGN_PERSON_AND_ORGANIZATION_ASSIGNMENT ( #8, #138, ( #248 ) ) ;
#36 = CC_DESIGN_APPROVAL ( #164, ( #65 ) ) ;
#37 = ORIENTED_EDGE ( 'NONE', *, *, #60, .F. ) ;
#38 = ORIENTED_EDGE ( 'NONE', *, *, #175, .T. ) ;
#39 = DIRECTION ( 'NONE',  ( 1.000000000000000000, 0.000000000000000000, 0.000000000000000000 ) ) ;
#40 = DIRECTION ( 'NONE',  ( 0.000000000000000000, 0.000000000000000000, 1.000000000000000000 ) ) ;
#41 = LOCAL_TIME ( 17, 38, 0.000000000000000000, #117 ) ;
#42 = EDGE_CURVE ( 'NONE', #163, #27, #14, .T. ) ;
#43 = DIRECTION ( 'NONE',  ( -1.000000000000000000, 0.000000000000000000, 0.000000000000000000 ) ) ;
#44 = COORDINATED_UNIVERSAL_TIME_OFFSET ( 1, 0, .AHEAD. ) ;
#45 = APPROVAL_STATUS ( 'not_yet_approved' ) ;
#46 = ORIENTED_EDGE ( 'NONE', *, *, #86, .T. ) ;
#47 = PERSON_AND_ORGANIZATION_ROLE ( 'classification_officer' ) ;
#48 = AXIS2_PLACEMENT_3D ( 'NONE', #210, #247, #141 ) ;
#49 = VECTOR ( 'NONE', #153, 1000.000000000000000 ) ;
#50 = FACE_OUTER_BOUND ( 'NONE', #105, .T. ) ;
#51 = VERTEX_POINT ( 'NONE', #243 ) ;
#52 = EDGE_CURVE ( 'NONE', #142, #4, #94, .T. ) ;
#53 = ADVANCED_BREP_SHAPE_REPRESENTATION ( '9cdf', ( #57, #147 ), #9 ) ;
#54 = CARTESIAN_POINT ( 'NONE',  ( 0.000000000000000000, 0.000000000000000000, 0.000000000000000000 ) ) ;
#55 = CIRCLE ( 'NONE', #81, 1.750000000000000000 ) ;
#56 = CARTESIAN_POINT ( 'NONE',  ( 0.000000000000000000, 0.000000000000000000, 800.0000000000000000 ) ) ;
#57 = MANIFOLD_SOLID_BREP ( 'Pøidat vysunutím3', #136 ) ;
#58 = CYLINDRICAL_SURFACE ( 'NONE', #96, 3.000000000000000444 ) ;
#59 = SECURITY_CLASSIFICATION ( '', '', #5 ) ;
#60 = EDGE_CURVE ( 'NONE', #91, #110, #121, .T. ) ;
#61 = DIRECTION ( 'NONE',  ( 0.000000000000000000, 0.000000000000000000, 1.000000000000000000 ) ) ;
#62 = PLANE ( 'NONE',  #227 ) ;
#63 = DIRECTION ( 'NONE',  ( -0.000000000000000000, -0.000000000000000000, -1.000000000000000000 ) ) ;
#64 = VECTOR ( 'NONE', #170, 1000.000000000000000 ) ;
#65 = PRODUCT_DEFINITION_FORMATION_WITH_SPECIFIED_SOURCE ( 'LIBOVOLNÝ', '', #7, .NOT_KNOWN. ) ;
#66 = ADVANCED_FACE ( 'NONE', ( #50 ), #145, .F. ) ;
#67 = CALENDAR_DATE ( 2023, 13, 2 ) ;
#68 = PRODUCT_RELATED_PRODUCT_CATEGORY ( 'detail', '', ( #7 ) ) ;
#69 = CALENDAR_DATE ( 2023, 13, 2 ) ;
#70 = CARTESIAN_POINT ( 'NONE',  ( 3.000000000000000444, 3.673940397442060361E-16, 3.000000000000000000 ) ) ;
#71 = APPROVAL_PERSON_ORGANIZATION ( #202, #164, #242 ) ;
#72 = FACE_OUTER_BOUND ( 'NONE', #148, .T. ) ;
#73 = ADVANCED_FACE ( 'NONE', ( #106 ), #189, .T. ) ;
#74 = ORIENTED_EDGE ( 'NONE', *, *, #13, .T. ) ;
#75 = EDGE_LOOP ( 'NONE', ( #239, #108 ) ) ;
#76 = CIRCLE ( 'NONE', #203, 3.000000000000000444 ) ;
#77 = DIRECTION ( 'NONE',  ( -1.000000000000000000, 0.000000000000000000, 0.000000000000000000 ) ) ;
#78 = CARTESIAN_POINT ( 'NONE',  ( 0.000000000000000000, 0.000000000000000000, 3.000000000000000000 ) ) ;
#79 = DIRECTION ( 'NONE',  ( 1.000000000000000000, 0.000000000000000000, 0.000000000000000000 ) ) ;
#80 = CYLINDRICAL_SURFACE ( 'NONE', #161, 1.750000000000000000 ) ;
#81 = AXIS2_PLACEMENT_3D ( 'NONE', #78, #20, #130 ) ;
#82 = CARTESIAN_POINT ( 'NONE',  ( 0.000000000000000000, 0.000000000000000000, 3.000000000000000000 ) ) ;
#83 = APPROVAL_DATE_TIME ( #237, #229 ) ;
#84 = DATE_AND_TIME ( #67, #168 ) ;
#85 = ORIENTED_EDGE ( 'NONE', *, *, #13, .F. ) ;
#86 = EDGE_CURVE ( 'NONE', #27, #4, #21, .T. ) ;
#87 = PERSON_AND_ORGANIZATION_ROLE ( 'design_owner' ) ;
#88 = EDGE_LOOP ( 'NONE', ( #102, #226, #74, #90 ) ) ;
#89 = APPLICATION_CONTEXT ( 'configuration controlled 3d designs of mechanical parts and assemblies' ) ;
#90 = ORIENTED_EDGE ( 'NONE', *, *, #42, .F. ) ;
#91 = VERTEX_POINT ( 'NONE', #212 ) ;
#92 = CC_DESIGN_PERSON_AND_ORGANIZATION_ASSIGNMENT ( #151, #87, ( #7 ) ) ;
#93 = CARTESIAN_POINT ( 'NONE',  ( 0.000000000000000000, 0.000000000000000000, 800.0000000000000000 ) ) ;
#94 = LINE ( 'NONE', #70, #64 ) ;
#95 = ORIENTED_EDGE ( 'NONE', *, *, #175, .F. ) ;
#96 = AXIS2_PLACEMENT_3D ( 'NONE', #225, #208, #111 ) ;
#97 = DIRECTION ( 'NONE',  ( -0.000000000000000000, -0.000000000000000000, -1.000000000000000000 ) ) ;
#98 =( NAMED_UNIT ( * ) PLANE_ANGLE_UNIT ( ) SI_UNIT ( $, .RADIAN. ) );
#99 = CARTESIAN_POINT ( 'NONE',  ( 0.000000000000000000, 0.000000000000000000, 800.0000000000000000 ) ) ;
#100 = APPROVAL_STATUS ( 'not_yet_approved' ) ;
#101 = PERSON_AND_ORGANIZATION_ROLE ( 'creator' ) ;
#102 = ORIENTED_EDGE ( 'NONE', *, *, #132, .F. ) ;
#103 = DATE_AND_TIME ( #183, #31 ) ;
#104 = AXIS2_PLACEMENT_3D ( 'NONE', #54, #191, #125 ) ;
#105 = EDGE_LOOP ( 'NONE', ( #184, #85 ) ) ;
#106 = FACE_OUTER_BOUND ( 'NONE', #88, .T. ) ;
#107 = PRODUCT_DEFINITION_SHAPE ( 'NONE', 'NONE',  #248 ) ;
#108 = ORIENTED_EDGE ( 'NONE', *, *, #173, .F. ) ;
#109 = CARTESIAN_POINT ( 'NONE',  ( 3.000000000000000444, 3.673940397442060361E-16, 0.000000000000000000 ) ) ;
#110 = VERTEX_POINT ( 'NONE', #134 ) ;
#111 = DIRECTION ( 'NONE',  ( -1.000000000000000000, 0.000000000000000000, 0.000000000000000000 ) ) ;
#112 = CC_DESIGN_SECURITY_CLASSIFICATION ( #59, ( #65 ) ) ;
#113 = CARTESIAN_POINT ( 'NONE',  ( 0.000000000000000000, 0.000000000000000000, 3.000000000000000000 ) ) ;
#114 = VECTOR ( 'NONE', #63, 1000.000000000000000 ) ;
#115 = DIRECTION ( 'NONE',  ( -0.000000000000000000, -0.000000000000000000, -1.000000000000000000 ) ) ;
#116 = LINE ( 'NONE', #152, #114 ) ;
#117 = COORDINATED_UNIVERSAL_TIME_OFFSET ( 1, 0, .AHEAD. ) ;
#118 = APPROVAL_STATUS ( 'not_yet_approved' ) ;
#119 = AXIS2_PLACEMENT_3D ( 'NONE', #82, #233, #234 ) ;
#120 = COORDINATED_UNIVERSAL_TIME_OFFSET ( 1, 0, .AHEAD. ) ;
#121 = CIRCLE ( 'NONE', #48, 1.750000000000000000 ) ;
#122 = CARTESIAN_POINT ( 'NONE',  ( 0.000000000000000000, 0.000000000000000000, 0.000000000000000000 ) ) ;
#123 = FACE_OUTER_BOUND ( 'NONE', #16, .T. ) ;
#124 = CC_DESIGN_DATE_AND_TIME_ASSIGNMENT ( #103, #198, ( #59 ) ) ;
#125 = DIRECTION ( 'NONE',  ( 1.000000000000000000, 0.000000000000000000, 0.000000000000000000 ) ) ;
#126 = AXIS2_PLACEMENT_3D ( 'NONE', #11, #115, #43 ) ;
#127 = EDGE_CURVE ( 'NONE', #91, #51, #116, .T. ) ;
#128 = PLANE ( 'NONE',  #178 ) ;
#129 = ORIENTED_EDGE ( 'NONE', *, *, #219, .F. ) ;
#130 = DIRECTION ( 'NONE',  ( 1.000000000000000000, 0.000000000000000000, 0.000000000000000000 ) ) ;
#131 = CARTESIAN_POINT ( 'NONE',  ( 0.000000000000000000, 0.000000000000000000, 0.000000000000000000 ) ) ;
#132 = EDGE_CURVE ( 'NONE', #142, #163, #76, .T. ) ;
#133 = FACE_BOUND ( 'NONE', #75, .T. ) ;
#134 = CARTESIAN_POINT ( 'NONE',  ( 1.750000000000000000, 2.143131898507868297E-16, 800.0000000000000000 ) ) ;
#135 = DIRECTION ( 'NONE',  ( 0.000000000000000000, 0.000000000000000000, 1.000000000000000000 ) ) ;
#136 = CLOSED_SHELL ( 'NONE', ( #15, #73, #32, #188, #66, #213, #19 ) ) ;
#137 = LOCAL_TIME ( 17, 38, 0.000000000000000000, #1 ) ;
#138 = PERSON_AND_ORGANIZATION_ROLE ( 'creator' ) ;
#139 = ORIENTED_EDGE ( 'NONE', *, *, #127, .T. ) ;
#140 = PERSON_AND_ORGANIZATION ( #254, #236 ) ;
#141 = DIRECTION ( 'NONE',  ( 1.000000000000000000, 0.000000000000000000, 0.000000000000000000 ) ) ;
#142 = VERTEX_POINT ( 'NONE', #17 ) ;
#143 = EDGE_CURVE ( 'NONE', #51, #223, #55, .T. ) ;
#144 = ORIENTED_EDGE ( 'NONE', *, *, #219, .T. ) ;
#145 = PLANE ( 'NONE',  #209 ) ;
#146 = VECTOR ( 'NONE', #193, 1000.000000000000000 ) ;
#147 = AXIS2_PLACEMENT_3D ( 'NONE', #22, #23, #255 ) ;
#148 = EDGE_LOOP ( 'NONE', ( #156, #29 ) ) ;
#149 = CARTESIAN_POINT ( 'NONE',  ( 1.750000000000000000, 2.143131898507868297E-16, 3.000000000000000000 ) ) ;
#150 = CARTESIAN_POINT ( 'NONE',  ( 0.000000000000000000, 0.000000000000000000, 3.000000000000000000 ) ) ;
#151 = PERSON_AND_ORGANIZATION ( #254, #236 ) ;
#152 = CARTESIAN_POINT ( 'NONE',  ( -1.750000000000000000, 0.000000000000000000, 800.0000000000000000 ) ) ;
#153 = DIRECTION ( 'NONE',  ( -0.000000000000000000, -0.000000000000000000, -1.000000000000000000 ) ) ;
#154 = CIRCLE ( 'NONE', #104, 3.000000000000000444 ) ;
#155 = SHAPE_DEFINITION_REPRESENTATION ( #107, #53 ) ;
#156 = ORIENTED_EDGE ( 'NONE', *, *, #60, .T. ) ;
#157 = DATE_TIME_ROLE ( 'creation_date' ) ;
#158 = PERSON_AND_ORGANIZATION ( #254, #236 ) ;
#159 = EDGE_LOOP ( 'NONE', ( #186, #144, #246, #12 ) ) ;
#160 = DATE_AND_TIME ( #69, #137 ) ;
#161 = AXIS2_PLACEMENT_3D ( 'NONE', #99, #97, #251 ) ;
#162 = PERSON_AND_ORGANIZATION_ROLE ( 'design_supplier' ) ;
#163 = VERTEX_POINT ( 'NONE', #253 ) ;
#164 = APPROVAL ( #118, 'NEURÈENÝ' ) ;
#165 = CARTESIAN_POINT ( 'NONE',  ( -3.000000000000000444, 0.000000000000000000, 3.000000000000000000 ) ) ;
#166 = APPLICATION_CONTEXT ( 'configuration controlled 3d designs of mechanical parts and assemblies' ) ;
#167 = CYLINDRICAL_SURFACE ( 'NONE', #2, 1.750000000000000000 ) ;
#168 = LOCAL_TIME ( 17, 38, 0.000000000000000000, #120 ) ;
#169 = CARTESIAN_POINT ( 'NONE',  ( 0.000000000000000000, 0.000000000000000000, 800.0000000000000000 ) ) ;
#170 = DIRECTION ( 'NONE',  ( -0.000000000000000000, -0.000000000000000000, -1.000000000000000000 ) ) ;
#171 = DIRECTION ( 'NONE',  ( 0.000000000000000000, 0.000000000000000000, 1.000000000000000000 ) ) ;
#172 = AXIS2_PLACEMENT_3D ( 'NONE', #93, #171, #39 ) ;
#173 = EDGE_CURVE ( 'NONE', #223, #51, #194, .T. ) ;
#174 = FACE_OUTER_BOUND ( 'NONE', #228, .T. ) ;
#175 = EDGE_CURVE ( 'NONE', #163, #142, #187, .T. ) ;
#176 = CARTESIAN_POINT ( 'NONE',  ( 0.000000000000000000, 0.000000000000000000, 3.000000000000000000 ) ) ;
#177 = DIRECTION ( 'NONE',  ( 1.000000000000000000, 0.000000000000000000, 0.000000000000000000 ) ) ;
#178 = AXIS2_PLACEMENT_3D ( 'NONE', #169, #34, #211 ) ;
#179 = AXIS2_PLACEMENT_3D ( 'NONE', #113, #61, #79 ) ;
#180 = APPLICATION_PROTOCOL_DEFINITION ( 'international standard', 'config_control_design', 1994, #166 ) ;
#181 = CALENDAR_DATE ( 2023, 13, 2 ) ;
#182 = CC_DESIGN_APPROVAL ( #207, ( #248 ) ) ;
#183 = CALENDAR_DATE ( 2023, 13, 2 ) ;
#184 = ORIENTED_EDGE ( 'NONE', *, *, #86, .F. ) ;
#185 = APPROVAL_DATE_TIME ( #84, #207 ) ;
#186 = ORIENTED_EDGE ( 'NONE', *, *, #6, .F. ) ;
#187 = CIRCLE ( 'NONE', #179, 3.000000000000000444 ) ;
#188 = ADVANCED_FACE ( 'NONE', ( #133, #195 ), #62, .T. ) ;
#189 = CYLINDRICAL_SURFACE ( 'NONE', #126, 3.000000000000000444 ) ;
#190 = ORIENTED_EDGE ( 'NONE', *, *, #132, .T. ) ;
#191 = DIRECTION ( 'NONE',  ( 0.000000000000000000, 0.000000000000000000, 1.000000000000000000 ) ) ;
#192 = ORIENTED_EDGE ( 'NONE', *, *, #52, .F. ) ;
#193 = DIRECTION ( 'NONE',  ( -0.000000000000000000, -0.000000000000000000, -1.000000000000000000 ) ) ;
#194 = CIRCLE ( 'NONE', #119, 1.750000000000000000 ) ;
#195 = FACE_OUTER_BOUND ( 'NONE', #221, .T. ) ;
#196 = CC_DESIGN_DATE_AND_TIME_ASSIGNMENT ( #220, #157, ( #248 ) ) ;
#197 = DIRECTION ( 'NONE',  ( 0.000000000000000000, 0.000000000000000000, 1.000000000000000000 ) ) ;
#198 = DATE_TIME_ROLE ( 'classification_date' ) ;
#199 = APPLICATION_PROTOCOL_DEFINITION ( 'international standard', 'config_control_design', 1994, #89 ) ;
#200 = CC_DESIGN_APPROVAL ( #229, ( #59 ) ) ;
#201 = APPROVAL_ROLE ( '' ) ;
#202 = PERSON_AND_ORGANIZATION ( #254, #236 ) ;
#203 = AXIS2_PLACEMENT_3D ( 'NONE', #150, #40, #232 ) ;
#204 = DESIGN_CONTEXT ( 'detailed design', #89, 'design' ) ;
#205 = DIRECTION ( 'NONE',  ( 0.000000000000000000, 0.000000000000000000, 1.000000000000000000 ) ) ;
#206 = ORIENTED_EDGE ( 'NONE', *, *, #42, .T. ) ;
#207 = APPROVAL ( #45, 'NEURÈENÝ' ) ;
#208 = DIRECTION ( 'NONE',  ( -0.000000000000000000, -0.000000000000000000, -1.000000000000000000 ) ) ;
#209 = AXIS2_PLACEMENT_3D ( 'NONE', #122, #205, #33 ) ;
#210 = CARTESIAN_POINT ( 'NONE',  ( 0.000000000000000000, 0.000000000000000000, 800.0000000000000000 ) ) ;
#211 = DIRECTION ( 'NONE',  ( 1.000000000000000000, 0.000000000000000000, -0.000000000000000000 ) ) ;
#212 = CARTESIAN_POINT ( 'NONE',  ( -1.750000000000000000, 0.000000000000000000, 800.0000000000000000 ) ) ;
#213 = ADVANCED_FACE ( 'NONE', ( #174 ), #80, .T. ) ;
#214 = LINE ( 'NONE', #215, #49 ) ;
#215 = CARTESIAN_POINT ( 'NONE',  ( 1.750000000000000000, 2.143131898507868297E-16, 800.0000000000000000 ) ) ;
#216 = APPROVAL_PERSON_ORGANIZATION ( #158, #229, #3 ) ;
#217 = DIRECTION ( 'NONE',  ( 1.000000000000000000, 0.000000000000000000, -0.000000000000000000 ) ) ;
#218 = PERSON_AND_ORGANIZATION ( #254, #236 ) ;
#219 = EDGE_CURVE ( 'NONE', #110, #223, #214, .T. ) ;
#220 = DATE_AND_TIME ( #241, #41 ) ;
#221 = EDGE_LOOP ( 'NONE', ( #38, #190 ) ) ;
#222 = PERSON_AND_ORGANIZATION ( #254, #236 ) ;
#223 = VERTEX_POINT ( 'NONE', #149 ) ;
#224 = CARTESIAN_POINT ( 'NONE',  ( -3.000000000000000444, 0.000000000000000000, 0.000000000000000000 ) ) ;
#225 = CARTESIAN_POINT ( 'NONE',  ( 0.000000000000000000, 0.000000000000000000, 3.000000000000000000 ) ) ;
#226 = ORIENTED_EDGE ( 'NONE', *, *, #52, .T. ) ;
#227 = AXIS2_PLACEMENT_3D ( 'NONE', #176, #197, #217 ) ;
#228 = EDGE_LOOP ( 'NONE', ( #129, #37, #139, #10 ) ) ;
#229 = APPROVAL ( #100, 'NEURÈENÝ' ) ;
#230 =( NAMED_UNIT ( * ) SI_UNIT ( $, .STERADIAN. ) SOLID_ANGLE_UNIT ( ) );
#231 = CC_DESIGN_PERSON_AND_ORGANIZATION_ASSIGNMENT ( #140, #101, ( #65 ) ) ;
#232 = DIRECTION ( 'NONE',  ( 1.000000000000000000, 0.000000000000000000, 0.000000000000000000 ) ) ;
#233 = DIRECTION ( 'NONE',  ( 0.000000000000000000, 0.000000000000000000, 1.000000000000000000 ) ) ;
#234 = DIRECTION ( 'NONE',  ( 1.000000000000000000, 0.000000000000000000, 0.000000000000000000 ) ) ;
#235 =( LENGTH_UNIT ( ) NAMED_UNIT ( * ) SI_UNIT ( .MILLI., .METRE. ) );
#236 = ORGANIZATION ( 'NEURÈENÝ', 'NEURÈENÝ', '' ) ;
#237 = DATE_AND_TIME ( #181, #245 ) ;
#238 = CC_DESIGN_PERSON_AND_ORGANIZATION_ASSIGNMENT ( #222, #47, ( #59 ) ) ;
#239 = ORIENTED_EDGE ( 'NONE', *, *, #143, .F. ) ;
#240 = AXIS2_PLACEMENT_3D ( 'NONE', #131, #135, #177 ) ;
#241 = CALENDAR_DATE ( 2023, 13, 2 ) ;
#242 = APPROVAL_ROLE ( '' ) ;
#243 = CARTESIAN_POINT ( 'NONE',  ( -1.750000000000000000, 0.000000000000000000, 3.000000000000000000 ) ) ;
#244 = DIRECTION ( 'NONE',  ( -0.000000000000000000, -0.000000000000000000, -1.000000000000000000 ) ) ;
#245 = LOCAL_TIME ( 17, 38, 0.000000000000000000, #24 ) ;
#246 = ORIENTED_EDGE ( 'NONE', *, *, #173, .T. ) ;
#247 = DIRECTION ( 'NONE',  ( 0.000000000000000000, 0.000000000000000000, 1.000000000000000000 ) ) ;
#248 = PRODUCT_DEFINITION ( 'NEZNÁMÝ', '', #65, #204 ) ;
#249 = UNCERTAINTY_MEASURE_WITH_UNIT (LENGTH_MEASURE( 1.000000000000000082E-05 ), #235, 'distance_accuracy_value', 'NONE');
#250 = FACE_OUTER_BOUND ( 'NONE', #159, .T. ) ;
#251 = DIRECTION ( 'NONE',  ( -1.000000000000000000, 0.000000000000000000, 0.000000000000000000 ) ) ;
#252 = MECHANICAL_CONTEXT ( 'NONE', #166, 'mechanical' ) ;
#253 = CARTESIAN_POINT ( 'NONE',  ( -3.000000000000000444, 0.000000000000000000, 3.000000000000000000 ) ) ;
#254 = PERSON ( 'NEURÈENÝ', 'NEURÈENÝ', 'NEURÈENÝ', ('NEURÈENÝ'), ('NEURÈENÝ'), ('NEURÈENÝ') ) ;
#255 = DIRECTION ( 'NONE',  ( 1.000000000000000000, 0.000000000000000000, 0.000000000000000000 ) ) ;
ENDSEC;
END-ISO-10303-21;
