ISO-10303-21;
HEADER;
FILE_DESCRIPTION (( 'STEP AP203' ),
    '1' );
FILE_NAME ('fd04.STEP',
    '2023-02-13T13:08:16',
    ( '' ),
    ( '' ),
    'SwSTEP 2.0',
    'SolidWorks 2019',
    '' );
FILE_SCHEMA (( 'CONFIG_CONTROL_DESIGN' ));
ENDSEC;

DATA;
#1 = CARTESIAN_POINT ( 'NONE',  ( 0.000000000000000000, 0.000000000000000000, 6.500000000000000000 ) ) ;
#2 = CLOSED_SHELL ( 'NONE', ( #72, #102, #33, #235, #177, #138, #211 ) ) ;
#3 = LINE ( 'NONE', #117, #55 ) ;
#4 = LOCAL_TIME ( 14, 8, 16.00000000000000000, #246 ) ;
#5 = DIRECTION ( 'NONE',  ( 0.000000000000000000, 0.000000000000000000, 1.000000000000000000 ) ) ;
#6 = DIRECTION ( 'NONE',  ( -0.000000000000000000, -0.000000000000000000, -1.000000000000000000 ) ) ;
#7 = CIRCLE ( 'NONE', #67, 8.000000000000000000 ) ;
#8 = CALENDAR_DATE ( 2023, 13, 2 ) ;
#9 = MECHANICAL_CONTEXT ( 'NONE', #194, 'mechanical' ) ;
#10 = ORIENTED_EDGE ( 'NONE', *, *, #225, .F. ) ;
#11 = PERSON_AND_ORGANIZATION_ROLE ( 'design_supplier' ) ;
#12 = DATE_AND_TIME ( #107, #4 ) ;
#13 = ORIENTED_EDGE ( 'NONE', *, *, #239, .F. ) ;
#14 = PERSON_AND_ORGANIZATION_ROLE ( 'classification_officer' ) ;
#15 = CC_DESIGN_APPROVAL ( #195, ( #100 ) ) ;
#16 = AXIS2_PLACEMENT_3D ( 'NONE', #42, #118, #24 ) ;
#17 = DIRECTION ( 'NONE',  ( -1.000000000000000000, 0.000000000000000000, 0.000000000000000000 ) ) ;
#18 = VERTEX_POINT ( 'NONE', #51 ) ;
#19 = VERTEX_POINT ( 'NONE', #74 ) ;
#20 = ORIENTED_EDGE ( 'NONE', *, *, #158, .F. ) ;
#21 = ORIENTED_EDGE ( 'NONE', *, *, #188, .T. ) ;
#22 = CARTESIAN_POINT ( 'NONE',  ( 0.000000000000000000, 0.000000000000000000, 1000.000000000000000 ) ) ;
#23 = CARTESIAN_POINT ( 'NONE',  ( 0.000000000000000000, 0.000000000000000000, 6.500000000000000000 ) ) ;
#24 = DIRECTION ( 'NONE',  ( 1.000000000000000000, 0.000000000000000000, 0.000000000000000000 ) ) ;
#25 = FACE_OUTER_BOUND ( 'NONE', #166, .T. ) ;
#26 = AXIS2_PLACEMENT_3D ( 'NONE', #151, #234, #134 ) ;
#27 = PLANE ( 'NONE',  #37 ) ;
#28 = CC_DESIGN_APPROVAL ( #65, ( #226 ) ) ;
#29 = PERSON_AND_ORGANIZATION ( #163, #206 ) ;
#30 = CARTESIAN_POINT ( 'NONE',  ( 0.000000000000000000, 0.000000000000000000, 0.000000000000000000 ) ) ;
#31 = CYLINDRICAL_SURFACE ( 'NONE', #252, 8.000000000000000000 ) ;
#32 = CARTESIAN_POINT ( 'NONE',  ( 5.000000000000000888, 6.123233995736767268E-16, 1000.000000000000000 ) ) ;
#33 = ADVANCED_FACE ( 'NONE', ( #185 ), #31, .T. ) ;
#34 = VERTEX_POINT ( 'NONE', #32 ) ;
#35 = VECTOR ( 'NONE', #241, 1000.000000000000000 ) ;
#36 = CC_DESIGN_SECURITY_CLASSIFICATION ( #226, ( #100 ) ) ;
#37 = AXIS2_PLACEMENT_3D ( 'NONE', #59, #104, #159 ) ;
#38 = AXIS2_PLACEMENT_3D ( 'NONE', #142, #197, #172 ) ;
#39 = ORIENTED_EDGE ( 'NONE', *, *, #161, .F. ) ;
#40 = DIRECTION ( 'NONE',  ( 0.000000000000000000, 0.000000000000000000, 1.000000000000000000 ) ) ;
#41 = CARTESIAN_POINT ( 'NONE',  ( 5.000000000000000888, 6.123233995736767268E-16, 1000.000000000000000 ) ) ;
#42 = CARTESIAN_POINT ( 'NONE',  ( 0.000000000000000000, 0.000000000000000000, 6.500000000000000000 ) ) ;
#43 = PLANE ( 'NONE',  #230 ) ;
#44 = APPROVAL ( #73, 'NEURÈENÝ' ) ;
#45 = CARTESIAN_POINT ( 'NONE',  ( 8.000000000000000000, 9.797174393178823685E-16, 6.500000000000000000 ) ) ;
#46 = APPROVAL_STATUS ( 'not_yet_approved' ) ;
#47 = AXIS2_PLACEMENT_3D ( 'NONE', #30, #146, #88 ) ;
#48 = APPROVAL_STATUS ( 'not_yet_approved' ) ;
#49 = AXIS2_PLACEMENT_3D ( 'NONE', #58, #53, #132 ) ;
#50 = DATE_AND_TIME ( #90, #123 ) ;
#51 = CARTESIAN_POINT ( 'NONE',  ( 5.000000000000000888, 6.123233995736767268E-16, 6.500000000000000000 ) ) ;
#52 = CYLINDRICAL_SURFACE ( 'NONE', #198, 8.000000000000000000 ) ;
#53 = DIRECTION ( 'NONE',  ( 0.000000000000000000, 0.000000000000000000, 1.000000000000000000 ) ) ;
#54 = CARTESIAN_POINT ( 'NONE',  ( 0.000000000000000000, 0.000000000000000000, 6.500000000000000000 ) ) ;
#55 = VECTOR ( 'NONE', #196, 1000.000000000000000 ) ;
#56 = APPROVAL_PERSON_ORGANIZATION ( #130, #65, #124 ) ;
#57 = CIRCLE ( 'NONE', #38, 5.000000000000000888 ) ;
#58 = CARTESIAN_POINT ( 'NONE',  ( 0.000000000000000000, 0.000000000000000000, 6.500000000000000000 ) ) ;
#59 = CARTESIAN_POINT ( 'NONE',  ( 0.000000000000000000, 0.000000000000000000, 6.500000000000000000 ) ) ;
#60 = LINE ( 'NONE', #154, #173 ) ;
#61 = EDGE_CURVE ( 'NONE', #97, #114, #204, .T. ) ;
#62 = CARTESIAN_POINT ( 'NONE',  ( 0.000000000000000000, 0.000000000000000000, 0.000000000000000000 ) ) ;
#63 = CARTESIAN_POINT ( 'NONE',  ( 0.000000000000000000, 0.000000000000000000, 6.500000000000000000 ) ) ;
#64 = CIRCLE ( 'NONE', #209, 5.000000000000000888 ) ;
#65 = APPROVAL ( #46, 'NEURÈENÝ' ) ;
#66 = COORDINATED_UNIVERSAL_TIME_OFFSET ( 1, 0, .AHEAD. ) ;
#67 = AXIS2_PLACEMENT_3D ( 'NONE', #63, #40, #137 ) ;
#68 = DATE_TIME_ROLE ( 'classification_date' ) ;
#69 = DATE_AND_TIME ( #128, #135 ) ;
#70 = PERSON_AND_ORGANIZATION ( #163, #206 ) ;
#71 =( GEOMETRIC_REPRESENTATION_CONTEXT ( 3 ) GLOBAL_UNCERTAINTY_ASSIGNED_CONTEXT ( ( #82 ) ) GLOBAL_UNIT_ASSIGNED_CONTEXT ( ( #83, #120, #240 ) ) REPRESENTATION_CONTEXT ( 'NONE', 'WORKASPACE' ) );
#72 = ADVANCED_FACE ( 'NONE', ( #112 ), #94, .T. ) ;
#73 = APPROVAL_STATUS ( 'not_yet_approved' ) ;
#74 = CARTESIAN_POINT ( 'NONE',  ( -5.000000000000000888, 0.000000000000000000, 6.500000000000000000 ) ) ;
#75 = CC_DESIGN_DATE_AND_TIME_ASSIGNMENT ( #12, #164, ( #249 ) ) ;
#76 = ORIENTED_EDGE ( 'NONE', *, *, #225, .T. ) ;
#77 = VERTEX_POINT ( 'NONE', #113 ) ;
#78 = VERTEX_POINT ( 'NONE', #149 ) ;
#79 = ORIENTED_EDGE ( 'NONE', *, *, #61, .T. ) ;
#80 = LOCAL_TIME ( 14, 8, 16.00000000000000000, #182 ) ;
#81 = DIRECTION ( 'NONE',  ( -1.000000000000000000, 0.000000000000000000, 0.000000000000000000 ) ) ;
#82 = UNCERTAINTY_MEASURE_WITH_UNIT (LENGTH_MEASURE( 1.000000000000000082E-05 ), #83, 'distance_accuracy_value', 'NONE');
#83 =( LENGTH_UNIT ( ) NAMED_UNIT ( * ) SI_UNIT ( .MILLI., .METRE. ) );
#84 = CC_DESIGN_PERSON_AND_ORGANIZATION_ASSIGNMENT ( #70, #14, ( #226 ) ) ;
#85 = LINE ( 'NONE', #41, #35 ) ;
#86 = CIRCLE ( 'NONE', #16, 5.000000000000000888 ) ;
#87 = DIRECTION ( 'NONE',  ( -0.000000000000000000, -0.000000000000000000, -1.000000000000000000 ) ) ;
#88 = DIRECTION ( 'NONE',  ( 1.000000000000000000, 0.000000000000000000, 0.000000000000000000 ) ) ;
#89 = AXIS2_PLACEMENT_3D ( 'NONE', #62, #157, #174 ) ;
#90 = CALENDAR_DATE ( 2023, 13, 2 ) ;
#91 = PERSON_AND_ORGANIZATION ( #163, #206 ) ;
#92 = AXIS2_PLACEMENT_3D ( 'NONE', #22, #87, #81 ) ;
#93 = COORDINATED_UNIVERSAL_TIME_OFFSET ( 1, 0, .AHEAD. ) ;
#94 = CYLINDRICAL_SURFACE ( 'NONE', #143, 5.000000000000000888 ) ;
#95 = FACE_OUTER_BOUND ( 'NONE', #253, .T. ) ;
#96 = ORIENTED_EDGE ( 'NONE', *, *, #188, .F. ) ;
#97 = VERTEX_POINT ( 'NONE', #169 ) ;
#98 = DIRECTION ( 'NONE',  ( -1.000000000000000000, 0.000000000000000000, 0.000000000000000000 ) ) ;
#99 = DIRECTION ( 'NONE',  ( 1.000000000000000000, 0.000000000000000000, 0.000000000000000000 ) ) ;
#100 = PRODUCT_DEFINITION_FORMATION_WITH_SPECIFIED_SOURCE ( 'LIBOVOLNÝ', '', #233, .NOT_KNOWN. ) ;
#101 = LINE ( 'NONE', #45, #125 ) ;
#102 = ADVANCED_FACE ( 'NONE', ( #95 ), #52, .T. ) ;
#103 = FACE_OUTER_BOUND ( 'NONE', #150, .T. ) ;
#104 = DIRECTION ( 'NONE',  ( 0.000000000000000000, 0.000000000000000000, 1.000000000000000000 ) ) ;
#105 = DATE_AND_TIME ( #8, #80 ) ;
#106 = AXIS2_PLACEMENT_3D ( 'NONE', #23, #217, #178 ) ;
#107 = CALENDAR_DATE ( 2023, 13, 2 ) ;
#108 = PERSON_AND_ORGANIZATION_ROLE ( 'design_owner' ) ;
#109 = PERSON_AND_ORGANIZATION_ROLE ( 'creator' ) ;
#110 = ORIENTED_EDGE ( 'NONE', *, *, #127, .T. ) ;
#111 = CC_DESIGN_DATE_AND_TIME_ASSIGNMENT ( #50, #68, ( #226 ) ) ;
#112 = FACE_OUTER_BOUND ( 'NONE', #165, .T. ) ;
#113 = CARTESIAN_POINT ( 'NONE',  ( -5.000000000000000888, 0.000000000000000000, 1000.000000000000000 ) ) ;
#114 = VERTEX_POINT ( 'NONE', #215 ) ;
#115 = EDGE_CURVE ( 'NONE', #229, #78, #171, .T. ) ;
#116 = ORIENTED_EDGE ( 'NONE', *, *, #115, .T. ) ;
#117 = CARTESIAN_POINT ( 'NONE',  ( -5.000000000000000888, 0.000000000000000000, 1000.000000000000000 ) ) ;
#118 = DIRECTION ( 'NONE',  ( 0.000000000000000000, 0.000000000000000000, 1.000000000000000000 ) ) ;
#119 = EDGE_CURVE ( 'NONE', #18, #19, #190, .T. ) ;
#120 =( NAMED_UNIT ( * ) PLANE_ANGLE_UNIT ( ) SI_UNIT ( $, .RADIAN. ) );
#121 = CARTESIAN_POINT ( 'NONE',  ( 0.000000000000000000, 0.000000000000000000, 1000.000000000000000 ) ) ;
#122 = FACE_BOUND ( 'NONE', #183, .T. ) ;
#123 = LOCAL_TIME ( 14, 8, 16.00000000000000000, #93 ) ;
#124 = APPROVAL_ROLE ( '' ) ;
#125 = VECTOR ( 'NONE', #6, 1000.000000000000000 ) ;
#126 = DATE_AND_TIME ( #223, #199 ) ;
#127 = EDGE_CURVE ( 'NONE', #77, #19, #3, .T. ) ;
#128 = CALENDAR_DATE ( 2023, 13, 2 ) ;
#129 = CIRCLE ( 'NONE', #192, 8.000000000000000000 ) ;
#130 = PERSON_AND_ORGANIZATION ( #163, #206 ) ;
#131 = ORIENTED_EDGE ( 'NONE', *, *, #115, .F. ) ;
#132 = DIRECTION ( 'NONE',  ( 1.000000000000000000, 0.000000000000000000, 0.000000000000000000 ) ) ;
#133 = CC_DESIGN_PERSON_AND_ORGANIZATION_ASSIGNMENT ( #162, #108, ( #233 ) ) ;
#134 = DIRECTION ( 'NONE',  ( 1.000000000000000000, 0.000000000000000000, 0.000000000000000000 ) ) ;
#135 = LOCAL_TIME ( 14, 8, 16.00000000000000000, #221 ) ;
#136 = ORIENTED_EDGE ( 'NONE', *, *, #127, .F. ) ;
#137 = DIRECTION ( 'NONE',  ( 1.000000000000000000, 0.000000000000000000, 0.000000000000000000 ) ) ;
#138 = ADVANCED_FACE ( 'NONE', ( #25 ), #238, .T. ) ;
#139 = DIRECTION ( 'NONE',  ( -0.000000000000000000, -0.000000000000000000, -1.000000000000000000 ) ) ;
#140 = DESIGN_CONTEXT ( 'detailed design', #170, 'design' ) ;
#141 = CARTESIAN_POINT ( 'NONE',  ( 0.000000000000000000, 0.000000000000000000, 0.000000000000000000 ) ) ;
#142 = CARTESIAN_POINT ( 'NONE',  ( 0.000000000000000000, 0.000000000000000000, 1000.000000000000000 ) ) ;
#143 = AXIS2_PLACEMENT_3D ( 'NONE', #236, #187, #98 ) ;
#144 = APPLICATION_PROTOCOL_DEFINITION ( 'international standard', 'config_control_design', 1994, #170 ) ;
#145 = APPROVAL_DATE_TIME ( #105, #44 ) ;
#146 = DIRECTION ( 'NONE',  ( 0.000000000000000000, 0.000000000000000000, 1.000000000000000000 ) ) ;
#147 = ORIENTED_EDGE ( 'NONE', *, *, #119, .T. ) ;
#148 = ORIENTED_EDGE ( 'NONE', *, *, #255, .T. ) ;
#149 = CARTESIAN_POINT ( 'NONE',  ( 8.000000000000000000, 9.797174393178823685E-16, 6.500000000000000000 ) ) ;
#150 = EDGE_LOOP ( 'NONE', ( #96, #210 ) ) ;
#151 = CARTESIAN_POINT ( 'NONE',  ( 0.000000000000000000, 0.000000000000000000, 0.000000000000000000 ) ) ;
#152 = ORIENTED_EDGE ( 'NONE', *, *, #208, .F. ) ;
#153 = CC_DESIGN_PERSON_AND_ORGANIZATION_ASSIGNMENT ( #243, #11, ( #100 ) ) ;
#154 = CARTESIAN_POINT ( 'NONE',  ( -8.000000000000000000, 0.000000000000000000, 6.500000000000000000 ) ) ;
#155 = DIRECTION ( 'NONE',  ( 1.000000000000000000, 0.000000000000000000, -0.000000000000000000 ) ) ;
#156 = DIRECTION ( 'NONE',  ( 1.000000000000000000, 0.000000000000000000, 0.000000000000000000 ) ) ;
#157 = DIRECTION ( 'NONE',  ( 0.000000000000000000, 0.000000000000000000, 1.000000000000000000 ) ) ;
#158 = EDGE_CURVE ( 'NONE', #34, #18, #85, .T. ) ;
#159 = DIRECTION ( 'NONE',  ( 1.000000000000000000, 0.000000000000000000, -0.000000000000000000 ) ) ;
#160 = APPROVAL_DATE_TIME ( #69, #195 ) ;
#161 = EDGE_CURVE ( 'NONE', #77, #34, #64, .T. ) ;
#162 = PERSON_AND_ORGANIZATION ( #163, #206 ) ;
#163 = PERSON ( 'NEURÈENÝ', 'NEURÈENÝ', 'NEURÈENÝ', ('NEURÈENÝ'), ('NEURÈENÝ'), ('NEURÈENÝ') ) ;
#164 = DATE_TIME_ROLE ( 'creation_date' ) ;
#165 = EDGE_LOOP ( 'NONE', ( #152, #202, #147, #136 ) ) ;
#166 = EDGE_LOOP ( 'NONE', ( #20, #39, #110, #193 ) ) ;
#167 = DIRECTION ( 'NONE',  ( -1.000000000000000000, 0.000000000000000000, 0.000000000000000000 ) ) ;
#168 = DIRECTION ( 'NONE',  ( -0.000000000000000000, -0.000000000000000000, -1.000000000000000000 ) ) ;
#169 = CARTESIAN_POINT ( 'NONE',  ( 8.000000000000000000, 9.797174393178823685E-16, 0.000000000000000000 ) ) ;
#170 = APPLICATION_CONTEXT ( 'configuration controlled 3d designs of mechanical parts and assemblies' ) ;
#171 = CIRCLE ( 'NONE', #49, 8.000000000000000000 ) ;
#172 = DIRECTION ( 'NONE',  ( 1.000000000000000000, 0.000000000000000000, 0.000000000000000000 ) ) ;
#173 = VECTOR ( 'NONE', #139, 1000.000000000000000 ) ;
#174 = DIRECTION ( 'NONE',  ( 1.000000000000000000, 0.000000000000000000, -0.000000000000000000 ) ) ;
#175 = FACE_OUTER_BOUND ( 'NONE', #254, .T. ) ;
#176 = DIRECTION ( 'NONE',  ( 0.000000000000000000, 0.000000000000000000, 1.000000000000000000 ) ) ;
#177 = ADVANCED_FACE ( 'NONE', ( #103 ), #219, .F. ) ;
#178 = DIRECTION ( 'NONE',  ( 1.000000000000000000, 0.000000000000000000, 0.000000000000000000 ) ) ;
#179 = PERSON_AND_ORGANIZATION ( #163, #206 ) ;
#180 = EDGE_CURVE ( 'NONE', #78, #97, #101, .T. ) ;
#181 = APPROVAL_ROLE ( '' ) ;
#182 = COORDINATED_UNIVERSAL_TIME_OFFSET ( 1, 0, .AHEAD. ) ;
#183 = EDGE_LOOP ( 'NONE', ( #13, #231 ) ) ;
#184 = SECURITY_CLASSIFICATION_LEVEL ( 'unclassified' ) ;
#185 = FACE_OUTER_BOUND ( 'NONE', #251, .T. ) ;
#186 = MANIFOLD_SOLID_BREP ( 'Pøidat vysunutím3', #2 ) ;
#187 = DIRECTION ( 'NONE',  ( -0.000000000000000000, -0.000000000000000000, -1.000000000000000000 ) ) ;
#188 = EDGE_CURVE ( 'NONE', #114, #97, #129, .T. ) ;
#189 = DIRECTION ( 'NONE',  ( -0.000000000000000000, -0.000000000000000000, -1.000000000000000000 ) ) ;
#190 = CIRCLE ( 'NONE', #106, 5.000000000000000888 ) ;
#191 = ORIENTED_EDGE ( 'NONE', *, *, #180, .F. ) ;
#192 = AXIS2_PLACEMENT_3D ( 'NONE', #141, #5, #99 ) ;
#193 = ORIENTED_EDGE ( 'NONE', *, *, #239, .T. ) ;
#194 = APPLICATION_CONTEXT ( 'configuration controlled 3d designs of mechanical parts and assemblies' ) ;
#195 = APPROVAL ( #48, 'NEURÈENÝ' ) ;
#196 = DIRECTION ( 'NONE',  ( -0.000000000000000000, -0.000000000000000000, -1.000000000000000000 ) ) ;
#197 = DIRECTION ( 'NONE',  ( 0.000000000000000000, 0.000000000000000000, 1.000000000000000000 ) ) ;
#198 = AXIS2_PLACEMENT_3D ( 'NONE', #54, #189, #167 ) ;
#199 = LOCAL_TIME ( 14, 8, 16.00000000000000000, #66 ) ;
#200 = CC_DESIGN_PERSON_AND_ORGANIZATION_ASSIGNMENT ( #91, #109, ( #249 ) ) ;
#201 = SHAPE_DEFINITION_REPRESENTATION ( #214, #213 ) ;
#202 = ORIENTED_EDGE ( 'NONE', *, *, #158, .T. ) ;
#203 = APPROVAL_ROLE ( '' ) ;
#204 = CIRCLE ( 'NONE', #26, 8.000000000000000000 ) ;
#205 = APPLICATION_PROTOCOL_DEFINITION ( 'international standard', 'config_control_design', 1994, #194 ) ;
#206 = ORGANIZATION ( 'NEURÈENÝ', 'NEURÈENÝ', '' ) ;
#207 = ORIENTED_EDGE ( 'NONE', *, *, #255, .F. ) ;
#208 = EDGE_CURVE ( 'NONE', #34, #77, #57, .T. ) ;
#209 = AXIS2_PLACEMENT_3D ( 'NONE', #242, #176, #156 ) ;
#210 = ORIENTED_EDGE ( 'NONE', *, *, #61, .F. ) ;
#211 = ADVANCED_FACE ( 'NONE', ( #175 ), #43, .T. ) ;
#212 = ORIENTED_EDGE ( 'NONE', *, *, #180, .T. ) ;
#213 = ADVANCED_BREP_SHAPE_REPRESENTATION ( 'fd04', ( #186, #47 ), #71 ) ;
#214 = PRODUCT_DEFINITION_SHAPE ( 'NONE', 'NONE',  #249 ) ;
#215 = CARTESIAN_POINT ( 'NONE',  ( -8.000000000000000000, 0.000000000000000000, 0.000000000000000000 ) ) ;
#216 = ORIENTED_EDGE ( 'NONE', *, *, #208, .T. ) ;
#217 = DIRECTION ( 'NONE',  ( 0.000000000000000000, 0.000000000000000000, 1.000000000000000000 ) ) ;
#218 = FACE_OUTER_BOUND ( 'NONE', #250, .T. ) ;
#219 = PLANE ( 'NONE',  #89 ) ;
#220 = DIRECTION ( 'NONE',  ( 0.000000000000000000, 0.000000000000000000, 1.000000000000000000 ) ) ;
#221 = COORDINATED_UNIVERSAL_TIME_OFFSET ( 1, 0, .AHEAD. ) ;
#222 = CC_DESIGN_APPROVAL ( #44, ( #249 ) ) ;
#223 = CALENDAR_DATE ( 2023, 13, 2 ) ;
#224 = APPROVAL_DATE_TIME ( #126, #65 ) ;
#225 = EDGE_CURVE ( 'NONE', #229, #114, #60, .T. ) ;
#226 = SECURITY_CLASSIFICATION ( '', '', #184 ) ;
#227 = PERSON_AND_ORGANIZATION_ROLE ( 'creator' ) ;
#228 = PRODUCT_RELATED_PRODUCT_CATEGORY ( 'detail', '', ( #233 ) ) ;
#229 = VERTEX_POINT ( 'NONE', #237 ) ;
#230 = AXIS2_PLACEMENT_3D ( 'NONE', #121, #220, #155 ) ;
#231 = ORIENTED_EDGE ( 'NONE', *, *, #119, .F. ) ;
#232 = ORIENTED_EDGE ( 'NONE', *, *, #161, .T. ) ;
#233 = PRODUCT ( 'fd04', 'fd04', '', ( #9 ) ) ;
#234 = DIRECTION ( 'NONE',  ( 0.000000000000000000, 0.000000000000000000, 1.000000000000000000 ) ) ;
#235 = ADVANCED_FACE ( 'NONE', ( #122, #218 ), #27, .T. ) ;
#236 = CARTESIAN_POINT ( 'NONE',  ( 0.000000000000000000, 0.000000000000000000, 1000.000000000000000 ) ) ;
#237 = CARTESIAN_POINT ( 'NONE',  ( -8.000000000000000000, 0.000000000000000000, 6.500000000000000000 ) ) ;
#238 = CYLINDRICAL_SURFACE ( 'NONE', #92, 5.000000000000000888 ) ;
#239 = EDGE_CURVE ( 'NONE', #19, #18, #86, .T. ) ;
#240 =( NAMED_UNIT ( * ) SI_UNIT ( $, .STERADIAN. ) SOLID_ANGLE_UNIT ( ) );
#241 = DIRECTION ( 'NONE',  ( -0.000000000000000000, -0.000000000000000000, -1.000000000000000000 ) ) ;
#242 = CARTESIAN_POINT ( 'NONE',  ( 0.000000000000000000, 0.000000000000000000, 1000.000000000000000 ) ) ;
#243 = PERSON_AND_ORGANIZATION ( #163, #206 ) ;
#244 = PERSON_AND_ORGANIZATION ( #163, #206 ) ;
#245 = CC_DESIGN_PERSON_AND_ORGANIZATION_ASSIGNMENT ( #29, #227, ( #100 ) ) ;
#246 = COORDINATED_UNIVERSAL_TIME_OFFSET ( 1, 0, .AHEAD. ) ;
#247 = APPROVAL_PERSON_ORGANIZATION ( #179, #44, #181 ) ;
#248 = APPROVAL_PERSON_ORGANIZATION ( #244, #195, #203 ) ;
#249 = PRODUCT_DEFINITION ( 'NEZNÁMÝ', '', #100, #140 ) ;
#250 = EDGE_LOOP ( 'NONE', ( #116, #148 ) ) ;
#251 = EDGE_LOOP ( 'NONE', ( #191, #131, #76, #21 ) ) ;
#252 = AXIS2_PLACEMENT_3D ( 'NONE', #1, #168, #17 ) ;
#253 = EDGE_LOOP ( 'NONE', ( #207, #212, #79, #10 ) ) ;
#254 = EDGE_LOOP ( 'NONE', ( #232, #216 ) ) ;
#255 = EDGE_CURVE ( 'NONE', #78, #229, #7, .T. ) ;
ENDSEC;
END-ISO-10303-21;
