ISO-10303-21;
HEADER;
FILE_DESCRIPTION (( 'STEP AP203' ),
    '1' );
FILE_NAME ('9c11.STEP',
    '2023-02-13T07:30:04',
    ( '' ),
    ( '' ),
    'SwSTEP 2.0',
    'SolidWorks 2019',
    '' );
FILE_SCHEMA (( 'CONFIG_CONTROL_DESIGN' ));
ENDSEC;

DATA;
#1 = EDGE_LOOP ( 'NONE', ( #222, #244 ) ) ;
#2 = DIRECTION ( 'NONE',  ( 0.000000000000000000, 0.000000000000000000, 1.000000000000000000 ) ) ;
#3 = APPROVAL_PERSON_ORGANIZATION ( #73, #142, #231 ) ;
#4 = DIRECTION ( 'NONE',  ( 1.000000000000000000, 0.000000000000000000, -0.000000000000000000 ) ) ;
#5 = VERTEX_POINT ( 'NONE', #113 ) ;
#6 = PLANE ( 'NONE',  #105 ) ;
#7 = PRODUCT_DEFINITION_SHAPE ( 'NONE', 'NONE',  #54 ) ;
#8 = DIRECTION ( 'NONE',  ( 1.000000000000000000, 0.000000000000000000, 0.000000000000000000 ) ) ;
#9 = SECURITY_CLASSIFICATION_LEVEL ( 'unclassified' ) ;
#10 = DATE_TIME_ROLE ( 'classification_date' ) ;
#11 = VECTOR ( 'NONE', #225, 1000.000000000000000 ) ;
#12 = CARTESIAN_POINT ( 'NONE',  ( -20.00000000000000000, 0.000000000000000000, 0.000000000000000000 ) ) ;
#13 = SECURITY_CLASSIFICATION ( '', '', #9 ) ;
#14 = MECHANICAL_CONTEXT ( 'NONE', #150, 'mechanical' ) ;
#15 = APPROVAL_DATE_TIME ( #184, #142 ) ;
#16 = CARTESIAN_POINT ( 'NONE',  ( 0.000000000000000000, 0.000000000000000000, 0.000000000000000000 ) ) ;
#17 = AXIS2_PLACEMENT_3D ( 'NONE', #248, #2, #8 ) ;
#18 = APPROVAL ( #103, 'NEURÈENÝ' ) ;
#19 = CIRCLE ( 'NONE', #53, 16.00000000000000000 ) ;
#20 = CC_DESIGN_PERSON_AND_ORGANIZATION_ASSIGNMENT ( #233, #33, ( #13 ) ) ;
#21 = VERTEX_POINT ( 'NONE', #12 ) ;
#22 = ORIENTED_EDGE ( 'NONE', *, *, #205, .F. ) ;
#23 = EDGE_CURVE ( 'NONE', #42, #115, #74, .T. ) ;
#24 = CARTESIAN_POINT ( 'NONE',  ( 20.00000000000000000, 2.449293598294706513E-15, 10.00000000000000000 ) ) ;
#25 = DIRECTION ( 'NONE',  ( 1.000000000000000000, 0.000000000000000000, -0.000000000000000000 ) ) ;
#26 = PRODUCT ( '9c11', '9c11', '', ( #14 ) ) ;
#27 = CARTESIAN_POINT ( 'NONE',  ( 0.000000000000000000, 0.000000000000000000, 10.00000000000000000 ) ) ;
#28 = DIRECTION ( 'NONE',  ( -0.000000000000000000, -0.000000000000000000, -1.000000000000000000 ) ) ;
#29 = ORIENTED_EDGE ( 'NONE', *, *, #197, .T. ) ;
#30 = DIRECTION ( 'NONE',  ( 1.000000000000000000, 0.000000000000000000, -0.000000000000000000 ) ) ;
#31 = SHAPE_DEFINITION_REPRESENTATION ( #7, #91 ) ;
#32 = DIRECTION ( 'NONE',  ( 0.000000000000000000, 0.000000000000000000, 1.000000000000000000 ) ) ;
#33 = PERSON_AND_ORGANIZATION_ROLE ( 'classification_officer' ) ;
#34 = ADVANCED_FACE ( 'NONE', ( #112 ), #136, .T. ) ;
#35 = CALENDAR_DATE ( 2023, 13, 2 ) ;
#36 = VECTOR ( 'NONE', #140, 1000.000000000000000 ) ;
#37 = DIRECTION ( 'NONE',  ( 0.000000000000000000, 0.000000000000000000, 1.000000000000000000 ) ) ;
#38 = APPROVAL_STATUS ( 'not_yet_approved' ) ;
#39 = LOCAL_TIME ( 8, 30, 4.000000000000000000, #75 ) ;
#40 = CIRCLE ( 'NONE', #243, 20.00000000000000000 ) ;
#41 = ORIENTED_EDGE ( 'NONE', *, *, #148, .F. ) ;
#42 = VERTEX_POINT ( 'NONE', #121 ) ;
#43 = EDGE_LOOP ( 'NONE', ( #57, #170 ) ) ;
#44 = ORIENTED_EDGE ( 'NONE', *, *, #254, .F. ) ;
#45 = DIRECTION ( 'NONE',  ( -0.000000000000000000, -0.000000000000000000, -1.000000000000000000 ) ) ;
#46 = DIRECTION ( 'NONE',  ( -0.000000000000000000, -0.000000000000000000, -1.000000000000000000 ) ) ;
#47 = FACE_OUTER_BOUND ( 'NONE', #60, .T. ) ;
#48 = DIRECTION ( 'NONE',  ( 0.000000000000000000, 0.000000000000000000, 1.000000000000000000 ) ) ;
#49 = COORDINATED_UNIVERSAL_TIME_OFFSET ( 1, 0, .AHEAD. ) ;
#50 = COORDINATED_UNIVERSAL_TIME_OFFSET ( 1, 0, .AHEAD. ) ;
#51 =( LENGTH_UNIT ( ) NAMED_UNIT ( * ) SI_UNIT ( .MILLI., .METRE. ) );
#52 = DATE_AND_TIME ( #122, #109 ) ;
#53 = AXIS2_PLACEMENT_3D ( 'NONE', #27, #80, #221 ) ;
#54 = PRODUCT_DEFINITION ( 'NEZNÁMÝ', '', #202, #164 ) ;
#55 = APPLICATION_PROTOCOL_DEFINITION ( 'international standard', 'config_control_design', 1994, #111 ) ;
#56 = CALENDAR_DATE ( 2023, 13, 2 ) ;
#57 = ORIENTED_EDGE ( 'NONE', *, *, #235, .F. ) ;
#58 = ADVANCED_FACE ( 'NONE', ( #63 ), #6, .F. ) ;
#59 = CC_DESIGN_DATE_AND_TIME_ASSIGNMENT ( #52, #139, ( #54 ) ) ;
#60 = EDGE_LOOP ( 'NONE', ( #241, #131, #237, #217 ) ) ;
#61 = DIRECTION ( 'NONE',  ( -1.000000000000000000, 0.000000000000000000, 0.000000000000000000 ) ) ;
#62 = AXIS2_PLACEMENT_3D ( 'NONE', #251, #71, #207 ) ;
#63 = FACE_OUTER_BOUND ( 'NONE', #43, .T. ) ;
#64 = VERTEX_POINT ( 'NONE', #200 ) ;
#65 = DIRECTION ( 'NONE',  ( -0.000000000000000000, -0.000000000000000000, -1.000000000000000000 ) ) ;
#66 = FACE_OUTER_BOUND ( 'NONE', #98, .T. ) ;
#67 = EDGE_CURVE ( 'NONE', #199, #64, #19, .T. ) ;
#68 = PERSON_AND_ORGANIZATION_ROLE ( 'creator' ) ;
#69 = CALENDAR_DATE ( 2023, 13, 2 ) ;
#70 = CC_DESIGN_APPROVAL ( #142, ( #202 ) ) ;
#71 = DIRECTION ( 'NONE',  ( -0.000000000000000000, -0.000000000000000000, -1.000000000000000000 ) ) ;
#72 = PERSON_AND_ORGANIZATION ( #247, #228 ) ;
#73 = PERSON_AND_ORGANIZATION ( #247, #228 ) ;
#74 = CIRCLE ( 'NONE', #120, 16.00000000000000000 ) ;
#75 = COORDINATED_UNIVERSAL_TIME_OFFSET ( 1, 0, .AHEAD. ) ;
#76 = ORIENTED_EDGE ( 'NONE', *, *, #224, .F. ) ;
#77 = AXIS2_PLACEMENT_3D ( 'NONE', #159, #46, #203 ) ;
#78 = PRODUCT_RELATED_PRODUCT_CATEGORY ( 'detail', '', ( #26 ) ) ;
#79 = CARTESIAN_POINT ( 'NONE',  ( 16.00000000000000000, 1.959434878635765131E-15, 160.0000000000000000 ) ) ;
#80 = DIRECTION ( 'NONE',  ( 0.000000000000000000, 0.000000000000000000, 1.000000000000000000 ) ) ;
#81 = ORIENTED_EDGE ( 'NONE', *, *, #215, .T. ) ;
#82 = AXIS2_PLACEMENT_3D ( 'NONE', #88, #32, #249 ) ;
#83 = CYLINDRICAL_SURFACE ( 'NONE', #77, 20.00000000000000000 ) ;
#84 = LINE ( 'NONE', #240, #195 ) ;
#85 = EDGE_CURVE ( 'NONE', #64, #199, #172, .T. ) ;
#86 = LOCAL_TIME ( 8, 30, 4.000000000000000000, #50 ) ;
#87 = PERSON_AND_ORGANIZATION ( #247, #228 ) ;
#88 = CARTESIAN_POINT ( 'NONE',  ( 0.000000000000000000, 0.000000000000000000, 0.000000000000000000 ) ) ;
#89 = PERSON_AND_ORGANIZATION_ROLE ( 'design_owner' ) ;
#90 = PERSON_AND_ORGANIZATION ( #247, #228 ) ;
#91 = ADVANCED_BREP_SHAPE_REPRESENTATION ( '9c11', ( #101, #189 ), #124 ) ;
#92 =( NAMED_UNIT ( * ) PLANE_ANGLE_UNIT ( ) SI_UNIT ( $, .RADIAN. ) );
#93 = CC_DESIGN_PERSON_AND_ORGANIZATION_ASSIGNMENT ( #72, #89, ( #26 ) ) ;
#94 = EDGE_LOOP ( 'NONE', ( #44, #161, #81, #178 ) ) ;
#95 = CARTESIAN_POINT ( 'NONE',  ( 0.000000000000000000, 0.000000000000000000, 10.00000000000000000 ) ) ;
#96 = CARTESIAN_POINT ( 'NONE',  ( 0.000000000000000000, 0.000000000000000000, 0.000000000000000000 ) ) ;
#97 = FACE_OUTER_BOUND ( 'NONE', #239, .T. ) ;
#98 = EDGE_LOOP ( 'NONE', ( #22, #155, #252, #133 ) ) ;
#99 = FACE_BOUND ( 'NONE', #213, .T. ) ;
#100 = CC_DESIGN_PERSON_AND_ORGANIZATION_ASSIGNMENT ( #226, #68, ( #54 ) ) ;
#101 = MANIFOLD_SOLID_BREP ( 'Pøidat vysunutím3', #193 ) ;
#102 = CARTESIAN_POINT ( 'NONE',  ( -16.00000000000000000, 0.000000000000000000, 160.0000000000000000 ) ) ;
#103 = APPROVAL_STATUS ( 'not_yet_approved' ) ;
#104 = DIRECTION ( 'NONE',  ( 0.000000000000000000, 0.000000000000000000, 1.000000000000000000 ) ) ;
#105 = AXIS2_PLACEMENT_3D ( 'NONE', #96, #204, #30 ) ;
#106 = DIRECTION ( 'NONE',  ( 1.000000000000000000, 0.000000000000000000, 0.000000000000000000 ) ) ;
#107 = DIRECTION ( 'NONE',  ( 0.000000000000000000, 0.000000000000000000, 1.000000000000000000 ) ) ;
#108 = ADVANCED_FACE ( 'NONE', ( #66 ), #242, .T. ) ;
#109 = LOCAL_TIME ( 8, 30, 4.000000000000000000, #49 ) ;
#110 = AXIS2_PLACEMENT_3D ( 'NONE', #16, #104, #165 ) ;
#111 = APPLICATION_CONTEXT ( 'configuration controlled 3d designs of mechanical parts and assemblies' ) ;
#112 = FACE_OUTER_BOUND ( 'NONE', #1, .T. ) ;
#113 = CARTESIAN_POINT ( 'NONE',  ( -20.00000000000000000, 0.000000000000000000, 10.00000000000000000 ) ) ;
#114 = CARTESIAN_POINT ( 'NONE',  ( 16.00000000000000000, 1.959434878635765131E-15, 10.00000000000000000 ) ) ;
#115 = VERTEX_POINT ( 'NONE', #79 ) ;
#116 = CARTESIAN_POINT ( 'NONE',  ( 0.000000000000000000, 0.000000000000000000, 10.00000000000000000 ) ) ;
#117 = ADVANCED_FACE ( 'NONE', ( #179 ), #83, .T. ) ;
#118 = CARTESIAN_POINT ( 'NONE',  ( 0.000000000000000000, 0.000000000000000000, 10.00000000000000000 ) ) ;
#119 = UNCERTAINTY_MEASURE_WITH_UNIT (LENGTH_MEASURE( 1.000000000000000082E-05 ), #51, 'distance_accuracy_value', 'NONE');
#120 = AXIS2_PLACEMENT_3D ( 'NONE', #209, #151, #238 ) ;
#121 = CARTESIAN_POINT ( 'NONE',  ( -16.00000000000000000, 0.000000000000000000, 160.0000000000000000 ) ) ;
#122 = CALENDAR_DATE ( 2023, 13, 2 ) ;
#123 = PERSON_AND_ORGANIZATION ( #247, #228 ) ;
#124 =( GEOMETRIC_REPRESENTATION_CONTEXT ( 3 ) GLOBAL_UNCERTAINTY_ASSIGNED_CONTEXT ( ( #119 ) ) GLOBAL_UNIT_ASSIGNED_CONTEXT ( ( #51, #92, #146 ) ) REPRESENTATION_CONTEXT ( 'NONE', 'WORKASPACE' ) );
#125 = DATE_AND_TIME ( #69, #86 ) ;
#126 = APPROVAL_STATUS ( 'not_yet_approved' ) ;
#127 = VECTOR ( 'NONE', #45, 1000.000000000000000 ) ;
#128 = ADVANCED_FACE ( 'NONE', ( #47 ), #177, .T. ) ;
#129 = DATE_AND_TIME ( #56, #39 ) ;
#130 = CC_DESIGN_APPROVAL ( #149, ( #54 ) ) ;
#131 = ORIENTED_EDGE ( 'NONE', *, *, #23, .F. ) ;
#132 = ORIENTED_EDGE ( 'NONE', *, *, #67, .F. ) ;
#133 = ORIENTED_EDGE ( 'NONE', *, *, #235, .T. ) ;
#134 = DIRECTION ( 'NONE',  ( -0.000000000000000000, -0.000000000000000000, -1.000000000000000000 ) ) ;
#135 = ORIENTED_EDGE ( 'NONE', *, *, #254, .T. ) ;
#136 = PLANE ( 'NONE',  #156 ) ;
#137 = DIRECTION ( 'NONE',  ( 0.000000000000000000, 0.000000000000000000, 1.000000000000000000 ) ) ;
#138 = DIRECTION ( 'NONE',  ( -1.000000000000000000, 0.000000000000000000, 0.000000000000000000 ) ) ;
#139 = DATE_TIME_ROLE ( 'creation_date' ) ;
#140 = DIRECTION ( 'NONE',  ( -0.000000000000000000, -0.000000000000000000, -1.000000000000000000 ) ) ;
#141 = PERSON_AND_ORGANIZATION_ROLE ( 'design_supplier' ) ;
#142 = APPROVAL ( #126, 'NEURÈENÝ' ) ;
#143 = LOCAL_TIME ( 8, 30, 4.000000000000000000, #210 ) ;
#144 = CARTESIAN_POINT ( 'NONE',  ( 0.000000000000000000, 0.000000000000000000, 10.00000000000000000 ) ) ;
#145 = COORDINATED_UNIVERSAL_TIME_OFFSET ( 1, 0, .AHEAD. ) ;
#146 =( NAMED_UNIT ( * ) SI_UNIT ( $, .STERADIAN. ) SOLID_ANGLE_UNIT ( ) );
#147 = AXIS2_PLACEMENT_3D ( 'NONE', #116, #65, #138 ) ;
#148 = EDGE_CURVE ( 'NONE', #42, #64, #245, .T. ) ;
#149 = APPROVAL ( #38, 'NEURÈENÝ' ) ;
#150 = APPLICATION_CONTEXT ( 'configuration controlled 3d designs of mechanical parts and assemblies' ) ;
#151 = DIRECTION ( 'NONE',  ( 0.000000000000000000, 0.000000000000000000, 1.000000000000000000 ) ) ;
#152 = CIRCLE ( 'NONE', #216, 16.00000000000000000 ) ;
#153 = VERTEX_POINT ( 'NONE', #206 ) ;
#154 = VERTEX_POINT ( 'NONE', #24 ) ;
#155 = ORIENTED_EDGE ( 'NONE', *, *, #168, .F. ) ;
#156 = AXIS2_PLACEMENT_3D ( 'NONE', #223, #48, #25 ) ;
#157 = ADVANCED_FACE ( 'NONE', ( #99, #97 ), #182, .T. ) ;
#158 = EDGE_LOOP ( 'NONE', ( #76, #29, #253, #41 ) ) ;
#159 = CARTESIAN_POINT ( 'NONE',  ( 0.000000000000000000, 0.000000000000000000, 10.00000000000000000 ) ) ;
#160 = CARTESIAN_POINT ( 'NONE',  ( 20.00000000000000000, 2.449293598294706513E-15, 10.00000000000000000 ) ) ;
#161 = ORIENTED_EDGE ( 'NONE', *, *, #205, .T. ) ;
#162 = CARTESIAN_POINT ( 'NONE',  ( 0.000000000000000000, 0.000000000000000000, 160.0000000000000000 ) ) ;
#163 = LINE ( 'NONE', #219, #127 ) ;
#164 = DESIGN_CONTEXT ( 'detailed design', #111, 'design' ) ;
#165 = DIRECTION ( 'NONE',  ( 1.000000000000000000, 0.000000000000000000, 0.000000000000000000 ) ) ;
#166 = DIRECTION ( 'NONE',  ( 1.000000000000000000, 0.000000000000000000, 0.000000000000000000 ) ) ;
#167 = PERSON_AND_ORGANIZATION_ROLE ( 'creator' ) ;
#168 = EDGE_CURVE ( 'NONE', #5, #154, #40, .T. ) ;
#169 = FACE_OUTER_BOUND ( 'NONE', #158, .T. ) ;
#170 = ORIENTED_EDGE ( 'NONE', *, *, #215, .F. ) ;
#171 = CC_DESIGN_APPROVAL ( #18, ( #13 ) ) ;
#172 = CIRCLE ( 'NONE', #17, 16.00000000000000000 ) ;
#173 = EDGE_CURVE ( 'NONE', #5, #21, #84, .T. ) ;
#174 = ORIENTED_EDGE ( 'NONE', *, *, #168, .T. ) ;
#175 = DIRECTION ( 'NONE',  ( 1.000000000000000000, 0.000000000000000000, 0.000000000000000000 ) ) ;
#176 = AXIS2_PLACEMENT_3D ( 'NONE', #144, #230, #234 ) ;
#177 = CYLINDRICAL_SURFACE ( 'NONE', #236, 16.00000000000000000 ) ;
#178 = ORIENTED_EDGE ( 'NONE', *, *, #173, .F. ) ;
#179 = FACE_OUTER_BOUND ( 'NONE', #94, .T. ) ;
#180 = CIRCLE ( 'NONE', #82, 20.00000000000000000 ) ;
#181 = DIRECTION ( 'NONE',  ( 0.000000000000000000, 0.000000000000000000, 1.000000000000000000 ) ) ;
#182 = PLANE ( 'NONE',  #187 ) ;
#183 = APPROVAL_PERSON_ORGANIZATION ( #87, #149, #190 ) ;
#184 = DATE_AND_TIME ( #35, #143 ) ;
#185 = CARTESIAN_POINT ( 'NONE',  ( 0.000000000000000000, 0.000000000000000000, 0.000000000000000000 ) ) ;
#186 = APPROVAL_ROLE ( '' ) ;
#187 = AXIS2_PLACEMENT_3D ( 'NONE', #95, #137, #4 ) ;
#188 = APPLICATION_PROTOCOL_DEFINITION ( 'international standard', 'config_control_design', 1994, #150 ) ;
#189 = AXIS2_PLACEMENT_3D ( 'NONE', #185, #37, #106 ) ;
#190 = APPROVAL_ROLE ( '' ) ;
#191 = PERSON_AND_ORGANIZATION ( #247, #228 ) ;
#192 = CC_DESIGN_SECURITY_CLASSIFICATION ( #13, ( #202 ) ) ;
#193 = CLOSED_SHELL ( 'NONE', ( #246, #117, #108, #157, #58, #128, #34 ) ) ;
#194 = CC_DESIGN_PERSON_AND_ORGANIZATION_ASSIGNMENT ( #191, #141, ( #202 ) ) ;
#195 = VECTOR ( 'NONE', #134, 1000.000000000000000 ) ;
#196 = ORIENTED_EDGE ( 'NONE', *, *, #85, .F. ) ;
#197 = EDGE_CURVE ( 'NONE', #115, #199, #163, .T. ) ;
#198 = APPROVAL_PERSON_ORGANIZATION ( #90, #18, #186 ) ;
#199 = VERTEX_POINT ( 'NONE', #114 ) ;
#200 = CARTESIAN_POINT ( 'NONE',  ( -16.00000000000000000, 0.000000000000000000, 10.00000000000000000 ) ) ;
#201 = LINE ( 'NONE', #160, #36 ) ;
#202 = PRODUCT_DEFINITION_FORMATION_WITH_SPECIFIED_SOURCE ( 'LIBOVOLNÝ', '', #26, .NOT_KNOWN. ) ;
#203 = DIRECTION ( 'NONE',  ( -1.000000000000000000, 0.000000000000000000, 0.000000000000000000 ) ) ;
#204 = DIRECTION ( 'NONE',  ( 0.000000000000000000, 0.000000000000000000, 1.000000000000000000 ) ) ;
#205 = EDGE_CURVE ( 'NONE', #154, #153, #201, .T. ) ;
#206 = CARTESIAN_POINT ( 'NONE',  ( 20.00000000000000000, 2.449293598294706513E-15, 0.000000000000000000 ) ) ;
#207 = DIRECTION ( 'NONE',  ( -1.000000000000000000, 0.000000000000000000, 0.000000000000000000 ) ) ;
#208 = APPROVAL_DATE_TIME ( #125, #18 ) ;
#209 = CARTESIAN_POINT ( 'NONE',  ( 0.000000000000000000, 0.000000000000000000, 160.0000000000000000 ) ) ;
#210 = COORDINATED_UNIVERSAL_TIME_OFFSET ( 1, 0, .AHEAD. ) ;
#211 = CYLINDRICAL_SURFACE ( 'NONE', #62, 16.00000000000000000 ) ;
#212 = APPROVAL_DATE_TIME ( #129, #149 ) ;
#213 = EDGE_LOOP ( 'NONE', ( #196, #132 ) ) ;
#214 = LOCAL_TIME ( 8, 30, 4.000000000000000000, #145 ) ;
#215 = EDGE_CURVE ( 'NONE', #153, #21, #180, .T. ) ;
#216 = AXIS2_PLACEMENT_3D ( 'NONE', #227, #107, #166 ) ;
#217 = ORIENTED_EDGE ( 'NONE', *, *, #85, .T. ) ;
#218 = CC_DESIGN_DATE_AND_TIME_ASSIGNMENT ( #250, #10, ( #13 ) ) ;
#219 = CARTESIAN_POINT ( 'NONE',  ( 16.00000000000000000, 1.959434878635765131E-15, 160.0000000000000000 ) ) ;
#220 = CC_DESIGN_PERSON_AND_ORGANIZATION_ASSIGNMENT ( #123, #167, ( #202 ) ) ;
#221 = DIRECTION ( 'NONE',  ( 1.000000000000000000, 0.000000000000000000, 0.000000000000000000 ) ) ;
#222 = ORIENTED_EDGE ( 'NONE', *, *, #23, .T. ) ;
#223 = CARTESIAN_POINT ( 'NONE',  ( 0.000000000000000000, 0.000000000000000000, 160.0000000000000000 ) ) ;
#224 = EDGE_CURVE ( 'NONE', #115, #42, #152, .T. ) ;
#225 = DIRECTION ( 'NONE',  ( -0.000000000000000000, -0.000000000000000000, -1.000000000000000000 ) ) ;
#226 = PERSON_AND_ORGANIZATION ( #247, #228 ) ;
#227 = CARTESIAN_POINT ( 'NONE',  ( 0.000000000000000000, 0.000000000000000000, 160.0000000000000000 ) ) ;
#228 = ORGANIZATION ( 'NEURÈENÝ', 'NEURÈENÝ', '' ) ;
#229 = CALENDAR_DATE ( 2023, 13, 2 ) ;
#230 = DIRECTION ( 'NONE',  ( 0.000000000000000000, 0.000000000000000000, 1.000000000000000000 ) ) ;
#231 = APPROVAL_ROLE ( '' ) ;
#232 = CIRCLE ( 'NONE', #110, 20.00000000000000000 ) ;
#233 = PERSON_AND_ORGANIZATION ( #247, #228 ) ;
#234 = DIRECTION ( 'NONE',  ( 1.000000000000000000, 0.000000000000000000, 0.000000000000000000 ) ) ;
#235 = EDGE_CURVE ( 'NONE', #21, #153, #232, .T. ) ;
#236 = AXIS2_PLACEMENT_3D ( 'NONE', #162, #28, #61 ) ;
#237 = ORIENTED_EDGE ( 'NONE', *, *, #148, .T. ) ;
#238 = DIRECTION ( 'NONE',  ( 1.000000000000000000, 0.000000000000000000, 0.000000000000000000 ) ) ;
#239 = EDGE_LOOP ( 'NONE', ( #174, #135 ) ) ;
#240 = CARTESIAN_POINT ( 'NONE',  ( -20.00000000000000000, 0.000000000000000000, 10.00000000000000000 ) ) ;
#241 = ORIENTED_EDGE ( 'NONE', *, *, #197, .F. ) ;
#242 = CYLINDRICAL_SURFACE ( 'NONE', #147, 20.00000000000000000 ) ;
#243 = AXIS2_PLACEMENT_3D ( 'NONE', #118, #181, #175 ) ;
#244 = ORIENTED_EDGE ( 'NONE', *, *, #224, .T. ) ;
#245 = LINE ( 'NONE', #102, #11 ) ;
#246 = ADVANCED_FACE ( 'NONE', ( #169 ), #211, .T. ) ;
#247 = PERSON ( 'NEURÈENÝ', 'NEURÈENÝ', 'NEURÈENÝ', ('NEURÈENÝ'), ('NEURÈENÝ'), ('NEURÈENÝ') ) ;
#248 = CARTESIAN_POINT ( 'NONE',  ( 0.000000000000000000, 0.000000000000000000, 10.00000000000000000 ) ) ;
#249 = DIRECTION ( 'NONE',  ( 1.000000000000000000, 0.000000000000000000, 0.000000000000000000 ) ) ;
#250 = DATE_AND_TIME ( #229, #214 ) ;
#251 = CARTESIAN_POINT ( 'NONE',  ( 0.000000000000000000, 0.000000000000000000, 160.0000000000000000 ) ) ;
#252 = ORIENTED_EDGE ( 'NONE', *, *, #173, .T. ) ;
#253 = ORIENTED_EDGE ( 'NONE', *, *, #67, .T. ) ;
#254 = EDGE_CURVE ( 'NONE', #154, #5, #255, .T. ) ;
#255 = CIRCLE ( 'NONE', #176, 20.00000000000000000 ) ;
ENDSEC;
END-ISO-10303-21;
