ISO-10303-21;
HEADER;
FILE_DESCRIPTION (( 'STEP AP203' ),
    '1' );
FILE_NAME ('f700.STEP',
    '2023-02-13T11:29:41',
    ( '' ),
    ( '' ),
    'SwSTEP 2.0',
    'SolidWorks 2019',
    '' );
FILE_SCHEMA (( 'CONFIG_CONTROL_DESIGN' ));
ENDSEC;

DATA;
#1 = ADVANCED_BREP_SHAPE_REPRESENTATION ( 'f700', ( #71, #80 ), #69 ) ;
#2 = DIRECTION ( 'NONE',  ( 0.000000000000000000, 0.000000000000000000, 1.000000000000000000 ) ) ;
#3 = AXIS2_PLACEMENT_3D ( 'NONE', #32, #209, #147 ) ;
#4 = LINE ( 'NONE', #227, #13 ) ;
#5 = LOCAL_TIME ( 12, 29, 41.00000000000000000, #85 ) ;
#6 = VERTEX_POINT ( 'NONE', #254 ) ;
#7 = EDGE_CURVE ( 'NONE', #51, #154, #61, .T. ) ;
#8 = COORDINATED_UNIVERSAL_TIME_OFFSET ( 1, 0, .AHEAD. ) ;
#9 = LINE ( 'NONE', #241, #42 ) ;
#10 = EDGE_LOOP ( 'NONE', ( #47, #155 ) ) ;
#11 = CARTESIAN_POINT ( 'NONE',  ( -9.000000000000000000, 0.000000000000000000, 0.000000000000000000 ) ) ;
#12 = DIRECTION ( 'NONE',  ( -0.000000000000000000, -0.000000000000000000, -1.000000000000000000 ) ) ;
#13 = VECTOR ( 'NONE', #31, 1000.000000000000000 ) ;
#14 = APPROVAL_ROLE ( '' ) ;
#15 = CARTESIAN_POINT ( 'NONE',  ( 0.000000000000000000, 0.000000000000000000, 160.0000000000000000 ) ) ;
#16 = CIRCLE ( 'NONE', #98, 9.000000000000000000 ) ;
#17 = EDGE_CURVE ( 'NONE', #201, #6, #239, .T. ) ;
#18 = DIRECTION ( 'NONE',  ( -1.000000000000000000, 0.000000000000000000, 0.000000000000000000 ) ) ;
#19 = SHAPE_DEFINITION_REPRESENTATION ( #23, #1 ) ;
#20 = DIRECTION ( 'NONE',  ( 1.000000000000000000, 0.000000000000000000, -0.000000000000000000 ) ) ;
#21 =( LENGTH_UNIT ( ) NAMED_UNIT ( * ) SI_UNIT ( .MILLI., .METRE. ) );
#22 =( NAMED_UNIT ( * ) PLANE_ANGLE_UNIT ( ) SI_UNIT ( $, .RADIAN. ) );
#23 = PRODUCT_DEFINITION_SHAPE ( 'NONE', 'NONE',  #24 ) ;
#24 = PRODUCT_DEFINITION ( 'NEZNÁMÝ', '', #211, #110 ) ;
#25 = EDGE_CURVE ( 'NONE', #51, #6, #216, .T. ) ;
#26 = SECURITY_CLASSIFICATION ( '', '', #196 ) ;
#27 = CIRCLE ( 'NONE', #132, 9.000000000000000000 ) ;
#28 = ORIENTED_EDGE ( 'NONE', *, *, #7, .F. ) ;
#29 = APPROVAL_PERSON_ORGANIZATION ( #126, #220, #87 ) ;
#30 = PERSON_AND_ORGANIZATION ( #150, #240 ) ;
#31 = DIRECTION ( 'NONE',  ( -0.000000000000000000, -0.000000000000000000, -1.000000000000000000 ) ) ;
#32 = CARTESIAN_POINT ( 'NONE',  ( 0.000000000000000000, 0.000000000000000000, 7.000000000000000000 ) ) ;
#33 = COORDINATED_UNIVERSAL_TIME_OFFSET ( 1, 0, .AHEAD. ) ;
#34 = DIRECTION ( 'NONE',  ( -0.000000000000000000, -0.000000000000000000, -1.000000000000000000 ) ) ;
#35 = APPROVAL_STATUS ( 'not_yet_approved' ) ;
#36 =( NAMED_UNIT ( * ) SI_UNIT ( $, .STERADIAN. ) SOLID_ANGLE_UNIT ( ) );
#37 = ADVANCED_FACE ( 'NONE', ( #192 ), #58, .T. ) ;
#38 = AXIS2_PLACEMENT_3D ( 'NONE', #118, #2, #114 ) ;
#39 = CC_DESIGN_DATE_AND_TIME_ASSIGNMENT ( #246, #232, ( #26 ) ) ;
#40 = CC_DESIGN_PERSON_AND_ORGANIZATION_ASSIGNMENT ( #93, #172, ( #26 ) ) ;
#41 = CARTESIAN_POINT ( 'NONE',  ( 0.000000000000000000, 0.000000000000000000, 160.0000000000000000 ) ) ;
#42 = VECTOR ( 'NONE', #191, 1000.000000000000000 ) ;
#43 = AXIS2_PLACEMENT_3D ( 'NONE', #171, #73, #221 ) ;
#44 = CYLINDRICAL_SURFACE ( 'NONE', #157, 9.000000000000000000 ) ;
#45 = ORIENTED_EDGE ( 'NONE', *, *, #25, .F. ) ;
#46 = AXIS2_PLACEMENT_3D ( 'NONE', #41, #119, #200 ) ;
#47 = ORIENTED_EDGE ( 'NONE', *, *, #17, .F. ) ;
#48 = ORIENTED_EDGE ( 'NONE', *, *, #190, .T. ) ;
#49 = ORIENTED_EDGE ( 'NONE', *, *, #238, .T. ) ;
#50 = PERSON_AND_ORGANIZATION_ROLE ( 'design_supplier' ) ;
#51 = VERTEX_POINT ( 'NONE', #90 ) ;
#52 = EDGE_CURVE ( 'NONE', #154, #201, #212, .T. ) ;
#53 = CARTESIAN_POINT ( 'NONE',  ( -6.099999999999999645, 0.000000000000000000, 7.000000000000000000 ) ) ;
#54 = DIRECTION ( 'NONE',  ( 0.000000000000000000, 0.000000000000000000, 1.000000000000000000 ) ) ;
#55 = FACE_OUTER_BOUND ( 'NONE', #141, .T. ) ;
#56 = CARTESIAN_POINT ( 'NONE',  ( 0.000000000000000000, 0.000000000000000000, 7.000000000000000000 ) ) ;
#57 = LOCAL_TIME ( 12, 29, 41.00000000000000000, #33 ) ;
#58 = CYLINDRICAL_SURFACE ( 'NONE', #159, 9.000000000000000000 ) ;
#59 = CARTESIAN_POINT ( 'NONE',  ( 6.099999999999999645, 7.470345474798854293E-16, 160.0000000000000000 ) ) ;
#60 = FACE_OUTER_BOUND ( 'NONE', #204, .T. ) ;
#61 = CIRCLE ( 'NONE', #134, 6.099999999999999645 ) ;
#62 = CC_DESIGN_APPROVAL ( #220, ( #26 ) ) ;
#63 = CC_DESIGN_PERSON_AND_ORGANIZATION_ASSIGNMENT ( #247, #104, ( #167 ) ) ;
#64 = ORIENTED_EDGE ( 'NONE', *, *, #79, .T. ) ;
#65 = AXIS2_PLACEMENT_3D ( 'NONE', #160, #144, #186 ) ;
#66 = APPROVAL_DATE_TIME ( #187, #130 ) ;
#67 = APPROVAL_DATE_TIME ( #198, #220 ) ;
#68 = ADVANCED_FACE ( 'NONE', ( #178, #181 ), #115, .T. ) ;
#69 =( GEOMETRIC_REPRESENTATION_CONTEXT ( 3 ) GLOBAL_UNCERTAINTY_ASSIGNED_CONTEXT ( ( #102 ) ) GLOBAL_UNIT_ASSIGNED_CONTEXT ( ( #21, #22, #36 ) ) REPRESENTATION_CONTEXT ( 'NONE', 'WORKASPACE' ) );
#70 = APPLICATION_PROTOCOL_DEFINITION ( 'international standard', 'config_control_design', 1994, #162 ) ;
#71 = MANIFOLD_SOLID_BREP ( 'Pøidat vysunutím3', #135 ) ;
#72 = ORIENTED_EDGE ( 'NONE', *, *, #182, .T. ) ;
#73 = DIRECTION ( 'NONE',  ( 0.000000000000000000, 0.000000000000000000, 1.000000000000000000 ) ) ;
#74 = ORIENTED_EDGE ( 'NONE', *, *, #233, .T. ) ;
#75 = APPROVAL_ROLE ( '' ) ;
#76 = EDGE_LOOP ( 'NONE', ( #74, #206 ) ) ;
#77 = DIRECTION ( 'NONE',  ( 0.000000000000000000, 0.000000000000000000, 1.000000000000000000 ) ) ;
#78 = CARTESIAN_POINT ( 'NONE',  ( -9.000000000000000000, 0.000000000000000000, 7.000000000000000000 ) ) ;
#79 = EDGE_CURVE ( 'NONE', #244, #84, #248, .T. ) ;
#80 = AXIS2_PLACEMENT_3D ( 'NONE', #96, #54, #205 ) ;
#81 = CARTESIAN_POINT ( 'NONE',  ( 0.000000000000000000, 0.000000000000000000, 7.000000000000000000 ) ) ;
#82 = FACE_OUTER_BOUND ( 'NONE', #223, .T. ) ;
#83 = CC_DESIGN_DATE_AND_TIME_ASSIGNMENT ( #106, #148, ( #24 ) ) ;
#84 = VERTEX_POINT ( 'NONE', #230 ) ;
#85 = COORDINATED_UNIVERSAL_TIME_OFFSET ( 1, 0, .AHEAD. ) ;
#86 = ADVANCED_FACE ( 'NONE', ( #55 ), #138, .F. ) ;
#87 = APPROVAL_ROLE ( '' ) ;
#88 = CARTESIAN_POINT ( 'NONE',  ( 0.000000000000000000, 0.000000000000000000, 7.000000000000000000 ) ) ;
#89 = LOCAL_TIME ( 12, 29, 41.00000000000000000, #225 ) ;
#90 = CARTESIAN_POINT ( 'NONE',  ( 6.099999999999999645, 7.470345474798854293E-16, 160.0000000000000000 ) ) ;
#91 = APPLICATION_PROTOCOL_DEFINITION ( 'international standard', 'config_control_design', 1994, #219 ) ;
#92 = DIRECTION ( 'NONE',  ( -1.000000000000000000, 0.000000000000000000, 0.000000000000000000 ) ) ;
#93 = PERSON_AND_ORGANIZATION ( #150, #240 ) ;
#94 = DIRECTION ( 'NONE',  ( -1.000000000000000000, 0.000000000000000000, 0.000000000000000000 ) ) ;
#95 = ORIENTED_EDGE ( 'NONE', *, *, #121, .T. ) ;
#96 = CARTESIAN_POINT ( 'NONE',  ( 0.000000000000000000, 0.000000000000000000, 0.000000000000000000 ) ) ;
#97 = AXIS2_PLACEMENT_3D ( 'NONE', #15, #137, #92 ) ;
#98 = AXIS2_PLACEMENT_3D ( 'NONE', #177, #77, #153 ) ;
#99 = FACE_OUTER_BOUND ( 'NONE', #76, .T. ) ;
#100 = ORIENTED_EDGE ( 'NONE', *, *, #218, .T. ) ;
#101 = DIRECTION ( 'NONE',  ( 1.000000000000000000, 0.000000000000000000, 0.000000000000000000 ) ) ;
#102 = UNCERTAINTY_MEASURE_WITH_UNIT (LENGTH_MEASURE( 1.000000000000000082E-05 ), #21, 'distance_accuracy_value', 'NONE');
#103 = ORIENTED_EDGE ( 'NONE', *, *, #238, .F. ) ;
#104 = PERSON_AND_ORGANIZATION_ROLE ( 'design_owner' ) ;
#105 = PERSON_AND_ORGANIZATION ( #150, #240 ) ;
#106 = DATE_AND_TIME ( #189, #57 ) ;
#107 = FACE_OUTER_BOUND ( 'NONE', #245, .T. ) ;
#108 = PERSON_AND_ORGANIZATION ( #150, #240 ) ;
#109 = CC_DESIGN_APPROVAL ( #130, ( #24 ) ) ;
#110 = DESIGN_CONTEXT ( 'detailed design', #219, 'design' ) ;
#111 = CC_DESIGN_PERSON_AND_ORGANIZATION_ASSIGNMENT ( #108, #112, ( #24 ) ) ;
#112 = PERSON_AND_ORGANIZATION_ROLE ( 'creator' ) ;
#113 = CARTESIAN_POINT ( 'NONE',  ( -6.099999999999999645, 0.000000000000000000, 160.0000000000000000 ) ) ;
#114 = DIRECTION ( 'NONE',  ( 1.000000000000000000, 0.000000000000000000, -0.000000000000000000 ) ) ;
#115 = PLANE ( 'NONE',  #38 ) ;
#116 = CC_DESIGN_APPROVAL ( #199, ( #211 ) ) ;
#117 = CC_DESIGN_PERSON_AND_ORGANIZATION_ASSIGNMENT ( #210, #50, ( #211 ) ) ;
#118 = CARTESIAN_POINT ( 'NONE',  ( 0.000000000000000000, 0.000000000000000000, 7.000000000000000000 ) ) ;
#119 = DIRECTION ( 'NONE',  ( 0.000000000000000000, 0.000000000000000000, 1.000000000000000000 ) ) ;
#120 = ORIENTED_EDGE ( 'NONE', *, *, #79, .F. ) ;
#121 = EDGE_CURVE ( 'NONE', #123, #185, #27, .T. ) ;
#122 = LOCAL_TIME ( 12, 29, 41.00000000000000000, #8 ) ;
#123 = VERTEX_POINT ( 'NONE', #222 ) ;
#124 = ORIENTED_EDGE ( 'NONE', *, *, #17, .T. ) ;
#125 = PRODUCT_RELATED_PRODUCT_CATEGORY ( 'detail', '', ( #167 ) ) ;
#126 = PERSON_AND_ORGANIZATION ( #150, #240 ) ;
#127 = APPROVAL_STATUS ( 'not_yet_approved' ) ;
#128 = DIRECTION ( 'NONE',  ( 0.000000000000000000, 0.000000000000000000, 1.000000000000000000 ) ) ;
#129 = EDGE_LOOP ( 'NONE', ( #64, #100 ) ) ;
#130 = APPROVAL ( #35, 'NEURÈENÝ' ) ;
#131 = CARTESIAN_POINT ( 'NONE',  ( 0.000000000000000000, 0.000000000000000000, 160.0000000000000000 ) ) ;
#132 = AXIS2_PLACEMENT_3D ( 'NONE', #242, #249, #101 ) ;
#133 = AXIS2_PLACEMENT_3D ( 'NONE', #173, #128, #20 ) ;
#134 = AXIS2_PLACEMENT_3D ( 'NONE', #229, #235, #207 ) ;
#135 = CLOSED_SHELL ( 'NONE', ( #203, #37, #164, #68, #86, #252, #236 ) ) ;
#136 = AXIS2_PLACEMENT_3D ( 'NONE', #131, #156, #94 ) ;
#137 = DIRECTION ( 'NONE',  ( -0.000000000000000000, -0.000000000000000000, -1.000000000000000000 ) ) ;
#138 = PLANE ( 'NONE',  #65 ) ;
#139 = ORIENTED_EDGE ( 'NONE', *, *, #218, .F. ) ;
#140 = LOCAL_TIME ( 12, 29, 41.00000000000000000, #253 ) ;
#141 = EDGE_LOOP ( 'NONE', ( #103, #231 ) ) ;
#142 = ORIENTED_EDGE ( 'NONE', *, *, #169, .T. ) ;
#143 = APPROVAL_DATE_TIME ( #170, #199 ) ;
#144 = DIRECTION ( 'NONE',  ( 0.000000000000000000, 0.000000000000000000, 1.000000000000000000 ) ) ;
#145 = VECTOR ( 'NONE', #217, 1000.000000000000000 ) ;
#146 = DIRECTION ( 'NONE',  ( 1.000000000000000000, 0.000000000000000000, 0.000000000000000000 ) ) ;
#147 = DIRECTION ( 'NONE',  ( 1.000000000000000000, 0.000000000000000000, 0.000000000000000000 ) ) ;
#148 = DATE_TIME_ROLE ( 'creation_date' ) ;
#149 = CALENDAR_DATE ( 2023, 13, 2 ) ;
#150 = PERSON ( 'NEURÈENÝ', 'NEURÈENÝ', 'NEURÈENÝ', ('NEURÈENÝ'), ('NEURÈENÝ'), ('NEURÈENÝ') ) ;
#151 = CC_DESIGN_SECURITY_CLASSIFICATION ( #26, ( #211 ) ) ;
#152 = EDGE_LOOP ( 'NONE', ( #139, #142, #95, #188 ) ) ;
#153 = DIRECTION ( 'NONE',  ( 1.000000000000000000, 0.000000000000000000, 0.000000000000000000 ) ) ;
#154 = VERTEX_POINT ( 'NONE', #197 ) ;
#155 = ORIENTED_EDGE ( 'NONE', *, *, #190, .F. ) ;
#156 = DIRECTION ( 'NONE',  ( -0.000000000000000000, -0.000000000000000000, -1.000000000000000000 ) ) ;
#157 = AXIS2_PLACEMENT_3D ( 'NONE', #251, #202, #18 ) ;
#158 = DIRECTION ( 'NONE',  ( 0.000000000000000000, 0.000000000000000000, 1.000000000000000000 ) ) ;
#159 = AXIS2_PLACEMENT_3D ( 'NONE', #56, #12, #215 ) ;
#160 = CARTESIAN_POINT ( 'NONE',  ( 0.000000000000000000, 0.000000000000000000, 0.000000000000000000 ) ) ;
#161 = APPROVAL_PERSON_ORGANIZATION ( #30, #130, #75 ) ;
#162 = APPLICATION_CONTEXT ( 'configuration controlled 3d designs of mechanical parts and assemblies' ) ;
#163 = ORIENTED_EDGE ( 'NONE', *, *, #169, .F. ) ;
#164 = ADVANCED_FACE ( 'NONE', ( #82 ), #44, .T. ) ;
#165 = ORIENTED_EDGE ( 'NONE', *, *, #52, .F. ) ;
#166 = CALENDAR_DATE ( 2023, 13, 2 ) ;
#167 = PRODUCT ( 'f700', 'f700', '', ( #228 ) ) ;
#168 = DIRECTION ( 'NONE',  ( 0.000000000000000000, 0.000000000000000000, 1.000000000000000000 ) ) ;
#169 = EDGE_CURVE ( 'NONE', #84, #123, #4, .T. ) ;
#170 = DATE_AND_TIME ( #166, #5 ) ;
#171 = CARTESIAN_POINT ( 'NONE',  ( 0.000000000000000000, 0.000000000000000000, 7.000000000000000000 ) ) ;
#172 = PERSON_AND_ORGANIZATION_ROLE ( 'classification_officer' ) ;
#173 = CARTESIAN_POINT ( 'NONE',  ( 0.000000000000000000, 0.000000000000000000, 160.0000000000000000 ) ) ;
#174 = ORIENTED_EDGE ( 'NONE', *, *, #233, .F. ) ;
#175 = CC_DESIGN_PERSON_AND_ORGANIZATION_ASSIGNMENT ( #105, #250, ( #211 ) ) ;
#176 = CIRCLE ( 'NONE', #46, 6.099999999999999645 ) ;
#177 = CARTESIAN_POINT ( 'NONE',  ( 0.000000000000000000, 0.000000000000000000, 0.000000000000000000 ) ) ;
#178 = FACE_BOUND ( 'NONE', #10, .T. ) ;
#179 = AXIS2_PLACEMENT_3D ( 'NONE', #81, #158, #237 ) ;
#180 = CIRCLE ( 'NONE', #43, 9.000000000000000000 ) ;
#181 = FACE_OUTER_BOUND ( 'NONE', #129, .T. ) ;
#182 = EDGE_CURVE ( 'NONE', #244, #185, #9, .T. ) ;
#183 = VECTOR ( 'NONE', #34, 1000.000000000000000 ) ;
#184 = PLANE ( 'NONE',  #133 ) ;
#185 = VERTEX_POINT ( 'NONE', #11 ) ;
#186 = DIRECTION ( 'NONE',  ( 1.000000000000000000, 0.000000000000000000, -0.000000000000000000 ) ) ;
#187 = DATE_AND_TIME ( #208, #122 ) ;
#188 = ORIENTED_EDGE ( 'NONE', *, *, #182, .F. ) ;
#189 = CALENDAR_DATE ( 2023, 13, 2 ) ;
#190 = EDGE_CURVE ( 'NONE', #6, #201, #194, .T. ) ;
#191 = DIRECTION ( 'NONE',  ( -0.000000000000000000, -0.000000000000000000, -1.000000000000000000 ) ) ;
#192 = FACE_OUTER_BOUND ( 'NONE', #152, .T. ) ;
#193 = PERSON_AND_ORGANIZATION ( #150, #240 ) ;
#194 = CIRCLE ( 'NONE', #255, 6.099999999999999645 ) ;
#195 = CYLINDRICAL_SURFACE ( 'NONE', #97, 6.099999999999999645 ) ;
#196 = SECURITY_CLASSIFICATION_LEVEL ( 'unclassified' ) ;
#197 = CARTESIAN_POINT ( 'NONE',  ( -6.099999999999999645, 0.000000000000000000, 160.0000000000000000 ) ) ;
#198 = DATE_AND_TIME ( #213, #89 ) ;
#199 = APPROVAL ( #226, 'NEURÈENÝ' ) ;
#200 = DIRECTION ( 'NONE',  ( 1.000000000000000000, 0.000000000000000000, 0.000000000000000000 ) ) ;
#201 = VERTEX_POINT ( 'NONE', #53 ) ;
#202 = DIRECTION ( 'NONE',  ( -0.000000000000000000, -0.000000000000000000, -1.000000000000000000 ) ) ;
#203 = ADVANCED_FACE ( 'NONE', ( #107 ), #195, .T. ) ;
#204 = EDGE_LOOP ( 'NONE', ( #45, #174, #243, #124 ) ) ;
#205 = DIRECTION ( 'NONE',  ( 1.000000000000000000, 0.000000000000000000, 0.000000000000000000 ) ) ;
#206 = ORIENTED_EDGE ( 'NONE', *, *, #7, .T. ) ;
#207 = DIRECTION ( 'NONE',  ( 1.000000000000000000, 0.000000000000000000, 0.000000000000000000 ) ) ;
#208 = CALENDAR_DATE ( 2023, 13, 2 ) ;
#209 = DIRECTION ( 'NONE',  ( 0.000000000000000000, 0.000000000000000000, 1.000000000000000000 ) ) ;
#210 = PERSON_AND_ORGANIZATION ( #150, #240 ) ;
#211 = PRODUCT_DEFINITION_FORMATION_WITH_SPECIFIED_SOURCE ( 'LIBOVOLNÝ', '', #167, .NOT_KNOWN. ) ;
#212 = LINE ( 'NONE', #113, #145 ) ;
#213 = CALENDAR_DATE ( 2023, 13, 2 ) ;
#214 = CYLINDRICAL_SURFACE ( 'NONE', #136, 6.099999999999999645 ) ;
#215 = DIRECTION ( 'NONE',  ( -1.000000000000000000, 0.000000000000000000, 0.000000000000000000 ) ) ;
#216 = LINE ( 'NONE', #59, #183 ) ;
#217 = DIRECTION ( 'NONE',  ( -0.000000000000000000, -0.000000000000000000, -1.000000000000000000 ) ) ;
#218 = EDGE_CURVE ( 'NONE', #84, #244, #180, .T. ) ;
#219 = APPLICATION_CONTEXT ( 'configuration controlled 3d designs of mechanical parts and assemblies' ) ;
#220 = APPROVAL ( #127, 'NEURÈENÝ' ) ;
#221 = DIRECTION ( 'NONE',  ( 1.000000000000000000, 0.000000000000000000, 0.000000000000000000 ) ) ;
#222 = CARTESIAN_POINT ( 'NONE',  ( 9.000000000000000000, 1.102182119232617714E-15, 0.000000000000000000 ) ) ;
#223 = EDGE_LOOP ( 'NONE', ( #163, #120, #72, #49 ) ) ;
#224 = ORIENTED_EDGE ( 'NONE', *, *, #25, .T. ) ;
#225 = COORDINATED_UNIVERSAL_TIME_OFFSET ( 1, 0, .AHEAD. ) ;
#226 = APPROVAL_STATUS ( 'not_yet_approved' ) ;
#227 = CARTESIAN_POINT ( 'NONE',  ( 9.000000000000000000, 1.102182119232617714E-15, 7.000000000000000000 ) ) ;
#228 = MECHANICAL_CONTEXT ( 'NONE', #162, 'mechanical' ) ;
#229 = CARTESIAN_POINT ( 'NONE',  ( 0.000000000000000000, 0.000000000000000000, 160.0000000000000000 ) ) ;
#230 = CARTESIAN_POINT ( 'NONE',  ( 9.000000000000000000, 1.102182119232617714E-15, 7.000000000000000000 ) ) ;
#231 = ORIENTED_EDGE ( 'NONE', *, *, #121, .F. ) ;
#232 = DATE_TIME_ROLE ( 'classification_date' ) ;
#233 = EDGE_CURVE ( 'NONE', #154, #51, #176, .T. ) ;
#234 = APPROVAL_PERSON_ORGANIZATION ( #193, #199, #14 ) ;
#235 = DIRECTION ( 'NONE',  ( 0.000000000000000000, 0.000000000000000000, 1.000000000000000000 ) ) ;
#236 = ADVANCED_FACE ( 'NONE', ( #99 ), #184, .T. ) ;
#237 = DIRECTION ( 'NONE',  ( 1.000000000000000000, 0.000000000000000000, 0.000000000000000000 ) ) ;
#238 = EDGE_CURVE ( 'NONE', #185, #123, #16, .T. ) ;
#239 = CIRCLE ( 'NONE', #3, 6.099999999999999645 ) ;
#240 = ORGANIZATION ( 'NEURÈENÝ', 'NEURÈENÝ', '' ) ;
#241 = CARTESIAN_POINT ( 'NONE',  ( -9.000000000000000000, 0.000000000000000000, 7.000000000000000000 ) ) ;
#242 = CARTESIAN_POINT ( 'NONE',  ( 0.000000000000000000, 0.000000000000000000, 0.000000000000000000 ) ) ;
#243 = ORIENTED_EDGE ( 'NONE', *, *, #52, .T. ) ;
#244 = VERTEX_POINT ( 'NONE', #78 ) ;
#245 = EDGE_LOOP ( 'NONE', ( #28, #224, #48, #165 ) ) ;
#246 = DATE_AND_TIME ( #149, #140 ) ;
#247 = PERSON_AND_ORGANIZATION ( #150, #240 ) ;
#248 = CIRCLE ( 'NONE', #179, 9.000000000000000000 ) ;
#249 = DIRECTION ( 'NONE',  ( 0.000000000000000000, 0.000000000000000000, 1.000000000000000000 ) ) ;
#250 = PERSON_AND_ORGANIZATION_ROLE ( 'creator' ) ;
#251 = CARTESIAN_POINT ( 'NONE',  ( 0.000000000000000000, 0.000000000000000000, 7.000000000000000000 ) ) ;
#252 = ADVANCED_FACE ( 'NONE', ( #60 ), #214, .T. ) ;
#253 = COORDINATED_UNIVERSAL_TIME_OFFSET ( 1, 0, .AHEAD. ) ;
#254 = CARTESIAN_POINT ( 'NONE',  ( 6.099999999999999645, 7.470345474798854293E-16, 7.000000000000000000 ) ) ;
#255 = AXIS2_PLACEMENT_3D ( 'NONE', #88, #168, #146 ) ;
ENDSEC;
END-ISO-10303-21;
