ISO-10303-21;
HEADER;
FILE_DESCRIPTION (( 'STEP AP203' ),
    '1' );
FILE_NAME ('6b55.STEP',
    '2023-02-13T16:03:28',
    ( '' ),
    ( '' ),
    'SwSTEP 2.0',
    'SolidWorks 2019',
    '' );
FILE_SCHEMA (( 'CONFIG_CONTROL_DESIGN' ));
ENDSEC;

DATA;
#1 = CARTESIAN_POINT ( 'NONE',  ( 0.000000000000000000, 0.000000000000000000, 400.0000000000000000 ) ) ;
#2 = ADVANCED_FACE ( 'NONE', ( #72 ), #136, .T. ) ;
#3 = CC_DESIGN_APPROVAL ( #70, ( #61 ) ) ;
#4 = APPROVAL ( #105, 'NEURÈENÝ' ) ;
#5 = VERTEX_POINT ( 'NONE', #245 ) ;
#6 = CIRCLE ( 'NONE', #224, 5.000000000000000000 ) ;
#7 = ORIENTED_EDGE ( 'NONE', *, *, #13, .T. ) ;
#8 = DIRECTION ( 'NONE',  ( 0.000000000000000000, 0.000000000000000000, 1.000000000000000000 ) ) ;
#9 = DIRECTION ( 'NONE',  ( 1.000000000000000000, 0.000000000000000000, 0.000000000000000000 ) ) ;
#10 = ORIENTED_EDGE ( 'NONE', *, *, #85, .F. ) ;
#11 = CARTESIAN_POINT ( 'NONE',  ( 0.000000000000000000, 0.000000000000000000, 0.000000000000000000 ) ) ;
#12 = PLANE ( 'NONE',  #250 ) ;
#13 = EDGE_CURVE ( 'NONE', #5, #209, #74, .T. ) ;
#14 = CYLINDRICAL_SURFACE ( 'NONE', #67, 5.000000000000000000 ) ;
#15 = DIRECTION ( 'NONE',  ( 1.000000000000000000, 0.000000000000000000, -0.000000000000000000 ) ) ;
#16 = CLOSED_SHELL ( 'NONE', ( #2, #131, #199, #34, #24, #104, #68 ) ) ;
#17 =( NAMED_UNIT ( * ) SI_UNIT ( $, .STERADIAN. ) SOLID_ANGLE_UNIT ( ) );
#18 = VECTOR ( 'NONE', #212, 1000.000000000000000 ) ;
#19 = CARTESIAN_POINT ( 'NONE',  ( 2.600000000000000089, 3.184081677783117698E-16, 5.000000000000000000 ) ) ;
#20 = DATE_TIME_ROLE ( 'creation_date' ) ;
#21 = CARTESIAN_POINT ( 'NONE',  ( 0.000000000000000000, 0.000000000000000000, 0.000000000000000000 ) ) ;
#22 = CALENDAR_DATE ( 2023, 13, 2 ) ;
#23 = DIRECTION ( 'NONE',  ( -1.000000000000000000, 0.000000000000000000, 0.000000000000000000 ) ) ;
#24 = ADVANCED_FACE ( 'NONE', ( #56 ), #12, .F. ) ;
#25 = PERSON_AND_ORGANIZATION_ROLE ( 'creator' ) ;
#26 = AXIS2_PLACEMENT_3D ( 'NONE', #211, #53, #58 ) ;
#27 = VECTOR ( 'NONE', #93, 1000.000000000000000 ) ;
#28 = DATE_TIME_ROLE ( 'classification_date' ) ;
#29 = LOCAL_TIME ( 17, 3, 28.00000000000000000, #150 ) ;
#30 = CARTESIAN_POINT ( 'NONE',  ( -5.000000000000000000, 0.000000000000000000, 0.000000000000000000 ) ) ;
#31 = AXIS2_PLACEMENT_3D ( 'NONE', #184, #122, #156 ) ;
#32 = ORIENTED_EDGE ( 'NONE', *, *, #237, .F. ) ;
#33 = PERSON_AND_ORGANIZATION_ROLE ( 'design_owner' ) ;
#34 = ADVANCED_FACE ( 'NONE', ( #59, #97 ), #174, .T. ) ;
#35 = EDGE_LOOP ( 'NONE', ( #32, #205 ) ) ;
#36 = CARTESIAN_POINT ( 'NONE',  ( -5.000000000000000000, 0.000000000000000000, 5.000000000000000000 ) ) ;
#37 = CARTESIAN_POINT ( 'NONE',  ( 0.000000000000000000, 0.000000000000000000, 0.000000000000000000 ) ) ;
#38 = DIRECTION ( 'NONE',  ( -1.000000000000000000, 0.000000000000000000, 0.000000000000000000 ) ) ;
#39 = DIRECTION ( 'NONE',  ( 0.000000000000000000, 0.000000000000000000, 1.000000000000000000 ) ) ;
#40 = MECHANICAL_CONTEXT ( 'NONE', #147, 'mechanical' ) ;
#41 = DIRECTION ( 'NONE',  ( 0.000000000000000000, 0.000000000000000000, 1.000000000000000000 ) ) ;
#42 = CC_DESIGN_PERSON_AND_ORGANIZATION_ASSIGNMENT ( #241, #89, ( #61 ) ) ;
#43 = CARTESIAN_POINT ( 'NONE',  ( 0.000000000000000000, 0.000000000000000000, 0.000000000000000000 ) ) ;
#44 = UNCERTAINTY_MEASURE_WITH_UNIT (LENGTH_MEASURE( 1.000000000000000082E-05 ), #235, 'distance_accuracy_value', 'NONE');
#45 = MANIFOLD_SOLID_BREP ( 'Pøidat vysunutím3', #16 ) ;
#46 = APPROVAL_ROLE ( '' ) ;
#47 = DIRECTION ( 'NONE',  ( 0.000000000000000000, 0.000000000000000000, 1.000000000000000000 ) ) ;
#48 = APPROVAL_ROLE ( '' ) ;
#49 = APPROVAL_PERSON_ORGANIZATION ( #141, #70, #48 ) ;
#50 = AXIS2_PLACEMENT_3D ( 'NONE', #1, #158, #100 ) ;
#51 = LOCAL_TIME ( 17, 3, 28.00000000000000000, #239 ) ;
#52 = CC_DESIGN_DATE_AND_TIME_ASSIGNMENT ( #106, #28, ( #130 ) ) ;
#53 = DIRECTION ( 'NONE',  ( -0.000000000000000000, -0.000000000000000000, -1.000000000000000000 ) ) ;
#54 = PERSON_AND_ORGANIZATION ( #120, #92 ) ;
#55 = CIRCLE ( 'NONE', #197, 2.600000000000000089 ) ;
#56 = FACE_OUTER_BOUND ( 'NONE', #35, .T. ) ;
#57 = VERTEX_POINT ( 'NONE', #19 ) ;
#58 = DIRECTION ( 'NONE',  ( -1.000000000000000000, 0.000000000000000000, 0.000000000000000000 ) ) ;
#59 = FACE_BOUND ( 'NONE', #137, .T. ) ;
#60 = AXIS2_PLACEMENT_3D ( 'NONE', #154, #39, #232 ) ;
#61 = PRODUCT_DEFINITION_FORMATION_WITH_SPECIFIED_SOURCE ( 'LIBOVOLNÝ', '', #213, .NOT_KNOWN. ) ;
#62 = APPROVAL_DATE_TIME ( #145, #118 ) ;
#63 = CARTESIAN_POINT ( 'NONE',  ( 0.000000000000000000, 0.000000000000000000, 5.000000000000000000 ) ) ;
#64 = DIRECTION ( 'NONE',  ( 1.000000000000000000, 0.000000000000000000, 0.000000000000000000 ) ) ;
#65 = CC_DESIGN_SECURITY_CLASSIFICATION ( #130, ( #61 ) ) ;
#66 = APPROVAL_PERSON_ORGANIZATION ( #75, #118, #46 ) ;
#67 = AXIS2_PLACEMENT_3D ( 'NONE', #152, #173, #38 ) ;
#68 = ADVANCED_FACE ( 'NONE', ( #98 ), #248, .T. ) ;
#69 = APPROVAL_ROLE ( '' ) ;
#70 = APPROVAL ( #124, 'NEURÈENÝ' ) ;
#71 = ORIENTED_EDGE ( 'NONE', *, *, #201, .T. ) ;
#72 = FACE_OUTER_BOUND ( 'NONE', #109, .T. ) ;
#73 = APPLICATION_PROTOCOL_DEFINITION ( 'international standard', 'config_control_design', 1994, #147 ) ;
#74 = LINE ( 'NONE', #132, #166 ) ;
#75 = PERSON_AND_ORGANIZATION ( #120, #92 ) ;
#76 = ORIENTED_EDGE ( 'NONE', *, *, #125, .T. ) ;
#77 = CIRCLE ( 'NONE', #110, 5.000000000000000000 ) ;
#78 = DIRECTION ( 'NONE',  ( -0.000000000000000000, -0.000000000000000000, -1.000000000000000000 ) ) ;
#79 = EDGE_LOOP ( 'NONE', ( #76, #177 ) ) ;
#80 = CARTESIAN_POINT ( 'NONE',  ( 5.000000000000000000, 6.123233995736766282E-16, 0.000000000000000000 ) ) ;
#81 = VERTEX_POINT ( 'NONE', #30 ) ;
#82 = CARTESIAN_POINT ( 'NONE',  ( 2.600000000000000089, 3.184081677783117698E-16, 400.0000000000000000 ) ) ;
#83 = CYLINDRICAL_SURFACE ( 'NONE', #88, 5.000000000000000000 ) ;
#84 = CYLINDRICAL_SURFACE ( 'NONE', #50, 2.600000000000000089 ) ;
#85 = EDGE_CURVE ( 'NONE', #207, #192, #108, .T. ) ;
#86 = CARTESIAN_POINT ( 'NONE',  ( -2.600000000000000089, 0.000000000000000000, 400.0000000000000000 ) ) ;
#87 = FACE_OUTER_BOUND ( 'NONE', #228, .T. ) ;
#88 = AXIS2_PLACEMENT_3D ( 'NONE', #236, #139, #23 ) ;
#89 = PERSON_AND_ORGANIZATION_ROLE ( 'design_supplier' ) ;
#90 = PERSON_AND_ORGANIZATION ( #120, #92 ) ;
#91 = DIRECTION ( 'NONE',  ( 1.000000000000000000, 0.000000000000000000, 0.000000000000000000 ) ) ;
#92 = ORGANIZATION ( 'NEURÈENÝ', 'NEURÈENÝ', '' ) ;
#93 = DIRECTION ( 'NONE',  ( -0.000000000000000000, -0.000000000000000000, -1.000000000000000000 ) ) ;
#94 = ORIENTED_EDGE ( 'NONE', *, *, #201, .F. ) ;
#95 = DIRECTION ( 'NONE',  ( 1.000000000000000000, 0.000000000000000000, 0.000000000000000000 ) ) ;
#96 = DIRECTION ( 'NONE',  ( 0.000000000000000000, 0.000000000000000000, 1.000000000000000000 ) ) ;
#97 = FACE_OUTER_BOUND ( 'NONE', #79, .T. ) ;
#98 = FACE_OUTER_BOUND ( 'NONE', #231, .T. ) ;
#99 = DIRECTION ( 'NONE',  ( 0.000000000000000000, 0.000000000000000000, 1.000000000000000000 ) ) ;
#100 = DIRECTION ( 'NONE',  ( -1.000000000000000000, 0.000000000000000000, 0.000000000000000000 ) ) ;
#101 = DATE_AND_TIME ( #200, #190 ) ;
#102 = PRODUCT_DEFINITION ( 'NEZNÁMÝ', '', #61, #233 ) ;
#103 = APPROVAL_DATE_TIME ( #204, #4 ) ;
#104 = ADVANCED_FACE ( 'NONE', ( #238 ), #84, .T. ) ;
#105 = APPROVAL_STATUS ( 'not_yet_approved' ) ;
#106 = DATE_AND_TIME ( #225, #242 ) ;
#107 = CARTESIAN_POINT ( 'NONE',  ( 0.000000000000000000, 0.000000000000000000, 400.0000000000000000 ) ) ;
#108 = CIRCLE ( 'NONE', #186, 2.600000000000000089 ) ;
#109 = EDGE_LOOP ( 'NONE', ( #10, #115, #227, #94 ) ) ;
#110 = AXIS2_PLACEMENT_3D ( 'NONE', #11, #133, #95 ) ;
#111 = APPLICATION_PROTOCOL_DEFINITION ( 'international standard', 'config_control_design', 1994, #254 ) ;
#112 = ORIENTED_EDGE ( 'NONE', *, *, #206, .F. ) ;
#113 = ADVANCED_BREP_SHAPE_REPRESENTATION ( '6b55', ( #45, #176 ), #162 ) ;
#114 = LINE ( 'NONE', #82, #181 ) ;
#115 = ORIENTED_EDGE ( 'NONE', *, *, #206, .T. ) ;
#116 = EDGE_CURVE ( 'NONE', #188, #57, #219, .T. ) ;
#117 = ORIENTED_EDGE ( 'NONE', *, *, #127, .F. ) ;
#118 = APPROVAL ( #230, 'NEURÈENÝ' ) ;
#119 = AXIS2_PLACEMENT_3D ( 'NONE', #135, #96, #9 ) ;
#120 = PERSON ( 'NEURÈENÝ', 'NEURÈENÝ', 'NEURÈENÝ', ('NEURÈENÝ'), ('NEURÈENÝ'), ('NEURÈENÝ') ) ;
#121 = CARTESIAN_POINT ( 'NONE',  ( 2.600000000000000089, 3.184081677783117698E-16, 400.0000000000000000 ) ) ;
#122 = DIRECTION ( 'NONE',  ( 0.000000000000000000, 0.000000000000000000, 1.000000000000000000 ) ) ;
#123 = CIRCLE ( 'NONE', #157, 5.000000000000000000 ) ;
#124 = APPROVAL_STATUS ( 'not_yet_approved' ) ;
#125 = EDGE_CURVE ( 'NONE', #246, #5, #179, .T. ) ;
#126 = COORDINATED_UNIVERSAL_TIME_OFFSET ( 1, 0, .AHEAD. ) ;
#127 = EDGE_CURVE ( 'NONE', #57, #188, #55, .T. ) ;
#128 = CALENDAR_DATE ( 2023, 13, 2 ) ;
#129 = CC_DESIGN_DATE_AND_TIME_ASSIGNMENT ( #221, #20, ( #102 ) ) ;
#130 = SECURITY_CLASSIFICATION ( '', '', #164 ) ;
#131 = ADVANCED_FACE ( 'NONE', ( #87 ), #83, .T. ) ;
#132 = CARTESIAN_POINT ( 'NONE',  ( 5.000000000000000000, 6.123233995736766282E-16, 5.000000000000000000 ) ) ;
#133 = DIRECTION ( 'NONE',  ( 0.000000000000000000, 0.000000000000000000, 1.000000000000000000 ) ) ;
#134 = ORIENTED_EDGE ( 'NONE', *, *, #116, .F. ) ;
#135 = CARTESIAN_POINT ( 'NONE',  ( 0.000000000000000000, 0.000000000000000000, 400.0000000000000000 ) ) ;
#136 = CYLINDRICAL_SURFACE ( 'NONE', #26, 2.600000000000000089 ) ;
#137 = EDGE_LOOP ( 'NONE', ( #134, #117 ) ) ;
#138 = DIRECTION ( 'NONE',  ( 1.000000000000000000, 0.000000000000000000, -0.000000000000000000 ) ) ;
#139 = DIRECTION ( 'NONE',  ( -0.000000000000000000, -0.000000000000000000, -1.000000000000000000 ) ) ;
#140 = CC_DESIGN_PERSON_AND_ORGANIZATION_ASSIGNMENT ( #202, #223, ( #130 ) ) ;
#141 = PERSON_AND_ORGANIZATION ( #120, #92 ) ;
#142 = LOCAL_TIME ( 17, 3, 28.00000000000000000, #196 ) ;
#143 = DIRECTION ( 'NONE',  ( 1.000000000000000000, 0.000000000000000000, 0.000000000000000000 ) ) ;
#144 = PRODUCT_DEFINITION_SHAPE ( 'NONE', 'NONE',  #102 ) ;
#145 = DATE_AND_TIME ( #159, #142 ) ;
#146 = PERSON_AND_ORGANIZATION ( #120, #92 ) ;
#147 = APPLICATION_CONTEXT ( 'configuration controlled 3d designs of mechanical parts and assemblies' ) ;
#148 = PERSON_AND_ORGANIZATION_ROLE ( 'creator' ) ;
#149 = ORIENTED_EDGE ( 'NONE', *, *, #218, .F. ) ;
#150 = COORDINATED_UNIVERSAL_TIME_OFFSET ( 1, 0, .AHEAD. ) ;
#151 = ORIENTED_EDGE ( 'NONE', *, *, #237, .T. ) ;
#152 = CARTESIAN_POINT ( 'NONE',  ( 0.000000000000000000, 0.000000000000000000, 5.000000000000000000 ) ) ;
#153 = ORIENTED_EDGE ( 'NONE', *, *, #243, .T. ) ;
#154 = CARTESIAN_POINT ( 'NONE',  ( 0.000000000000000000, 0.000000000000000000, 5.000000000000000000 ) ) ;
#155 = CARTESIAN_POINT ( 'NONE',  ( 0.000000000000000000, 0.000000000000000000, 400.0000000000000000 ) ) ;
#156 = DIRECTION ( 'NONE',  ( 1.000000000000000000, 0.000000000000000000, 0.000000000000000000 ) ) ;
#157 = AXIS2_PLACEMENT_3D ( 'NONE', #182, #161, #255 ) ;
#158 = DIRECTION ( 'NONE',  ( -0.000000000000000000, -0.000000000000000000, -1.000000000000000000 ) ) ;
#159 = CALENDAR_DATE ( 2023, 13, 2 ) ;
#160 = FACE_OUTER_BOUND ( 'NONE', #189, .T. ) ;
#161 = DIRECTION ( 'NONE',  ( 0.000000000000000000, 0.000000000000000000, 1.000000000000000000 ) ) ;
#162 =( GEOMETRIC_REPRESENTATION_CONTEXT ( 3 ) GLOBAL_UNCERTAINTY_ASSIGNED_CONTEXT ( ( #44 ) ) GLOBAL_UNIT_ASSIGNED_CONTEXT ( ( #235, #215, #17 ) ) REPRESENTATION_CONTEXT ( 'NONE', 'WORKASPACE' ) );
#163 = CC_DESIGN_PERSON_AND_ORGANIZATION_ASSIGNMENT ( #146, #148, ( #61 ) ) ;
#164 = SECURITY_CLASSIFICATION_LEVEL ( 'unclassified' ) ;
#165 = EDGE_CURVE ( 'NONE', #5, #246, #123, .T. ) ;
#166 = VECTOR ( 'NONE', #229, 1000.000000000000000 ) ;
#167 = CC_DESIGN_APPROVAL ( #118, ( #102 ) ) ;
#168 = ORIENTED_EDGE ( 'NONE', *, *, #13, .F. ) ;
#169 = ORIENTED_EDGE ( 'NONE', *, *, #165, .F. ) ;
#170 = LINE ( 'NONE', #193, #18 ) ;
#171 = ORIENTED_EDGE ( 'NONE', *, *, #183, .T. ) ;
#172 = CC_DESIGN_PERSON_AND_ORGANIZATION_ASSIGNMENT ( #217, #25, ( #102 ) ) ;
#173 = DIRECTION ( 'NONE',  ( -0.000000000000000000, -0.000000000000000000, -1.000000000000000000 ) ) ;
#174 = PLANE ( 'NONE',  #60 ) ;
#175 = CC_DESIGN_APPROVAL ( #4, ( #130 ) ) ;
#176 = AXIS2_PLACEMENT_3D ( 'NONE', #43, #99, #178 ) ;
#177 = ORIENTED_EDGE ( 'NONE', *, *, #165, .T. ) ;
#178 = DIRECTION ( 'NONE',  ( 1.000000000000000000, 0.000000000000000000, 0.000000000000000000 ) ) ;
#179 = CIRCLE ( 'NONE', #208, 5.000000000000000000 ) ;
#180 = DIRECTION ( 'NONE',  ( 1.000000000000000000, 0.000000000000000000, 0.000000000000000000 ) ) ;
#181 = VECTOR ( 'NONE', #78, 1000.000000000000000 ) ;
#182 = CARTESIAN_POINT ( 'NONE',  ( 0.000000000000000000, 0.000000000000000000, 5.000000000000000000 ) ) ;
#183 = EDGE_CURVE ( 'NONE', #209, #81, #6, .T. ) ;
#184 = CARTESIAN_POINT ( 'NONE',  ( 0.000000000000000000, 0.000000000000000000, 5.000000000000000000 ) ) ;
#185 = SHAPE_DEFINITION_REPRESENTATION ( #144, #113 ) ;
#186 = AXIS2_PLACEMENT_3D ( 'NONE', #107, #8, #91 ) ;
#187 = CIRCLE ( 'NONE', #119, 2.600000000000000089 ) ;
#188 = VERTEX_POINT ( 'NONE', #251 ) ;
#189 = EDGE_LOOP ( 'NONE', ( #168, #191, #226, #151 ) ) ;
#190 = LOCAL_TIME ( 17, 3, 28.00000000000000000, #126 ) ;
#191 = ORIENTED_EDGE ( 'NONE', *, *, #125, .F. ) ;
#192 = VERTEX_POINT ( 'NONE', #86 ) ;
#193 = CARTESIAN_POINT ( 'NONE',  ( -2.600000000000000089, 0.000000000000000000, 400.0000000000000000 ) ) ;
#194 = DIRECTION ( 'NONE',  ( 0.000000000000000000, 0.000000000000000000, 1.000000000000000000 ) ) ;
#195 = ORIENTED_EDGE ( 'NONE', *, *, #85, .T. ) ;
#196 = COORDINATED_UNIVERSAL_TIME_OFFSET ( 1, 0, .AHEAD. ) ;
#197 = AXIS2_PLACEMENT_3D ( 'NONE', #198, #41, #143 ) ;
#198 = CARTESIAN_POINT ( 'NONE',  ( 0.000000000000000000, 0.000000000000000000, 5.000000000000000000 ) ) ;
#199 = ADVANCED_FACE ( 'NONE', ( #160 ), #14, .T. ) ;
#200 = CALENDAR_DATE ( 2023, 13, 2 ) ;
#201 = EDGE_CURVE ( 'NONE', #192, #188, #170, .T. ) ;
#202 = PERSON_AND_ORGANIZATION ( #120, #92 ) ;
#203 = COORDINATED_UNIVERSAL_TIME_OFFSET ( 1, 0, .AHEAD. ) ;
#204 = DATE_AND_TIME ( #128, #29 ) ;
#205 = ORIENTED_EDGE ( 'NONE', *, *, #183, .F. ) ;
#206 = EDGE_CURVE ( 'NONE', #207, #57, #114, .T. ) ;
#207 = VERTEX_POINT ( 'NONE', #121 ) ;
#208 = AXIS2_PLACEMENT_3D ( 'NONE', #63, #249, #64 ) ;
#209 = VERTEX_POINT ( 'NONE', #80 ) ;
#210 = CARTESIAN_POINT ( 'NONE',  ( -5.000000000000000000, 0.000000000000000000, 5.000000000000000000 ) ) ;
#211 = CARTESIAN_POINT ( 'NONE',  ( 0.000000000000000000, 0.000000000000000000, 400.0000000000000000 ) ) ;
#212 = DIRECTION ( 'NONE',  ( -0.000000000000000000, -0.000000000000000000, -1.000000000000000000 ) ) ;
#213 = PRODUCT ( '6b55', '6b55', '', ( #40 ) ) ;
#214 = ORIENTED_EDGE ( 'NONE', *, *, #243, .F. ) ;
#215 =( NAMED_UNIT ( * ) PLANE_ANGLE_UNIT ( ) SI_UNIT ( $, .RADIAN. ) );
#216 = LINE ( 'NONE', #36, #27 ) ;
#217 = PERSON_AND_ORGANIZATION ( #120, #92 ) ;
#218 = EDGE_CURVE ( 'NONE', #246, #81, #216, .T. ) ;
#219 = CIRCLE ( 'NONE', #31, 2.600000000000000089 ) ;
#220 = CC_DESIGN_PERSON_AND_ORGANIZATION_ASSIGNMENT ( #54, #33, ( #213 ) ) ;
#221 = DATE_AND_TIME ( #22, #51 ) ;
#222 = AXIS2_PLACEMENT_3D ( 'NONE', #155, #234, #138 ) ;
#223 = PERSON_AND_ORGANIZATION_ROLE ( 'classification_officer' ) ;
#224 = AXIS2_PLACEMENT_3D ( 'NONE', #21, #47, #180 ) ;
#225 = CALENDAR_DATE ( 2023, 13, 2 ) ;
#226 = ORIENTED_EDGE ( 'NONE', *, *, #218, .T. ) ;
#227 = ORIENTED_EDGE ( 'NONE', *, *, #127, .T. ) ;
#228 = EDGE_LOOP ( 'NONE', ( #169, #7, #171, #149 ) ) ;
#229 = DIRECTION ( 'NONE',  ( -0.000000000000000000, -0.000000000000000000, -1.000000000000000000 ) ) ;
#230 = APPROVAL_STATUS ( 'not_yet_approved' ) ;
#231 = EDGE_LOOP ( 'NONE', ( #153, #195 ) ) ;
#232 = DIRECTION ( 'NONE',  ( 1.000000000000000000, 0.000000000000000000, -0.000000000000000000 ) ) ;
#233 = DESIGN_CONTEXT ( 'detailed design', #254, 'design' ) ;
#234 = DIRECTION ( 'NONE',  ( 0.000000000000000000, 0.000000000000000000, 1.000000000000000000 ) ) ;
#235 =( LENGTH_UNIT ( ) NAMED_UNIT ( * ) SI_UNIT ( .MILLI., .METRE. ) );
#236 = CARTESIAN_POINT ( 'NONE',  ( 0.000000000000000000, 0.000000000000000000, 5.000000000000000000 ) ) ;
#237 = EDGE_CURVE ( 'NONE', #81, #209, #77, .T. ) ;
#238 = FACE_OUTER_BOUND ( 'NONE', #247, .T. ) ;
#239 = COORDINATED_UNIVERSAL_TIME_OFFSET ( 1, 0, .AHEAD. ) ;
#240 = APPROVAL_DATE_TIME ( #101, #70 ) ;
#241 = PERSON_AND_ORGANIZATION ( #120, #92 ) ;
#242 = LOCAL_TIME ( 17, 3, 28.00000000000000000, #203 ) ;
#243 = EDGE_CURVE ( 'NONE', #192, #207, #187, .T. ) ;
#244 = ORIENTED_EDGE ( 'NONE', *, *, #116, .T. ) ;
#245 = CARTESIAN_POINT ( 'NONE',  ( 5.000000000000000000, 6.123233995736766282E-16, 5.000000000000000000 ) ) ;
#246 = VERTEX_POINT ( 'NONE', #210 ) ;
#247 = EDGE_LOOP ( 'NONE', ( #112, #214, #71, #244 ) ) ;
#248 = PLANE ( 'NONE',  #222 ) ;
#249 = DIRECTION ( 'NONE',  ( 0.000000000000000000, 0.000000000000000000, 1.000000000000000000 ) ) ;
#250 = AXIS2_PLACEMENT_3D ( 'NONE', #37, #194, #15 ) ;
#251 = CARTESIAN_POINT ( 'NONE',  ( -2.600000000000000089, 0.000000000000000000, 5.000000000000000000 ) ) ;
#252 = APPROVAL_PERSON_ORGANIZATION ( #90, #4, #69 ) ;
#253 = PRODUCT_RELATED_PRODUCT_CATEGORY ( 'detail', '', ( #213 ) ) ;
#254 = APPLICATION_CONTEXT ( 'configuration controlled 3d designs of mechanical parts and assemblies' ) ;
#255 = DIRECTION ( 'NONE',  ( 1.000000000000000000, 0.000000000000000000, 0.000000000000000000 ) ) ;
ENDSEC;
END-ISO-10303-21;
