ISO-10303-21;
HEADER;
FILE_DESCRIPTION (( 'STEP AP203' ),
    '1' );
FILE_NAME ('c316.STEP',
    '2023-02-13T08:39:30',
    ( '' ),
    ( '' ),
    'SwSTEP 2.0',
    'SolidWorks 2019',
    '' );
FILE_SCHEMA (( 'CONFIG_CONTROL_DESIGN' ));
ENDSEC;

DATA;
#1 = APPROVAL_DATE_TIME ( #254, #249 ) ;
#2 = COORDINATED_UNIVERSAL_TIME_OFFSET ( 1, 0, .AHEAD. ) ;
#3 = ORIENTED_EDGE ( 'NONE', *, *, #211, .T. ) ;
#4 = PERSON_AND_ORGANIZATION_ROLE ( 'design_supplier' ) ;
#5 = AXIS2_PLACEMENT_3D ( 'NONE', #147, #127, #8 ) ;
#6 = DIRECTION ( 'NONE',  ( -1.000000000000000000, 0.000000000000000000, 0.000000000000000000 ) ) ;
#7 = APPROVAL ( #75, 'NEURÈENÝ' ) ;
#8 = DIRECTION ( 'NONE',  ( 1.000000000000000000, 0.000000000000000000, -0.000000000000000000 ) ) ;
#9 = CYLINDRICAL_SURFACE ( 'NONE', #53, 16.00000000000000000 ) ;
#10 = EDGE_CURVE ( 'NONE', #14, #110, #22, .T. ) ;
#11 = FACE_BOUND ( 'NONE', #187, .T. ) ;
#12 = CC_DESIGN_APPROVAL ( #249, ( #246 ) ) ;
#13 = CARTESIAN_POINT ( 'NONE',  ( -12.50000000000000000, 0.000000000000000000, 99.99999999999998579 ) ) ;
#14 = VERTEX_POINT ( 'NONE', #213 ) ;
#15 = ADVANCED_BREP_SHAPE_REPRESENTATION ( 'c316', ( #153, #99 ), #47 ) ;
#16 = CARTESIAN_POINT ( 'NONE',  ( 0.000000000000000000, 0.000000000000000000, 0.000000000000000000 ) ) ;
#17 = EDGE_LOOP ( 'NONE', ( #248, #108, #70, #149 ) ) ;
#18 = PERSON_AND_ORGANIZATION ( #74, #93 ) ;
#19 = LOCAL_TIME ( 9, 39, 30.00000000000000000, #190 ) ;
#20 = CIRCLE ( 'NONE', #31, 16.00000000000000000 ) ;
#21 = DATE_AND_TIME ( #90, #19 ) ;
#22 = CIRCLE ( 'NONE', #163, 12.50000000000000000 ) ;
#23 = CIRCLE ( 'NONE', #208, 12.50000000000000000 ) ;
#24 = SECURITY_CLASSIFICATION ( '', '', #140 ) ;
#25 = ADVANCED_FACE ( 'NONE', ( #58 ), #120, .T. ) ;
#26 = CARTESIAN_POINT ( 'NONE',  ( 16.00000000000000000, 1.959434878635765131E-15, 10.00000000000000000 ) ) ;
#27 = CARTESIAN_POINT ( 'NONE',  ( -16.00000000000000000, 0.000000000000000000, 10.00000000000000000 ) ) ;
#28 = DIRECTION ( 'NONE',  ( -0.000000000000000000, -0.000000000000000000, -1.000000000000000000 ) ) ;
#29 = VECTOR ( 'NONE', #247, 1000.000000000000000 ) ;
#30 = LINE ( 'NONE', #102, #103 ) ;
#31 = AXIS2_PLACEMENT_3D ( 'NONE', #168, #186, #239 ) ;
#32 = DIRECTION ( 'NONE',  ( 0.000000000000000000, 0.000000000000000000, 1.000000000000000000 ) ) ;
#33 =( NAMED_UNIT ( * ) SI_UNIT ( $, .STERADIAN. ) SOLID_ANGLE_UNIT ( ) );
#34 = ORIENTED_EDGE ( 'NONE', *, *, #135, .F. ) ;
#35 = APPROVAL_ROLE ( '' ) ;
#36 = APPROVAL ( #206, 'NEURÈENÝ' ) ;
#37 = ORIENTED_EDGE ( 'NONE', *, *, #135, .T. ) ;
#38 = CALENDAR_DATE ( 2023, 13, 2 ) ;
#39 = FACE_OUTER_BOUND ( 'NONE', #126, .T. ) ;
#40 = AXIS2_PLACEMENT_3D ( 'NONE', #68, #32, #197 ) ;
#41 = CARTESIAN_POINT ( 'NONE',  ( 0.000000000000000000, 0.000000000000000000, 10.00000000000000000 ) ) ;
#42 = DIRECTION ( 'NONE',  ( -0.000000000000000000, -0.000000000000000000, -1.000000000000000000 ) ) ;
#43 = APPROVAL_DATE_TIME ( #59, #7 ) ;
#44 = CARTESIAN_POINT ( 'NONE',  ( 12.50000000000000000, 1.530808498934191127E-15, 10.00000000000000000 ) ) ;
#45 = CC_DESIGN_PERSON_AND_ORGANIZATION_ASSIGNMENT ( #118, #4, ( #246 ) ) ;
#46 = DIRECTION ( 'NONE',  ( 1.000000000000000000, 0.000000000000000000, 0.000000000000000000 ) ) ;
#47 =( GEOMETRIC_REPRESENTATION_CONTEXT ( 3 ) GLOBAL_UNCERTAINTY_ASSIGNED_CONTEXT ( ( #243 ) ) GLOBAL_UNIT_ASSIGNED_CONTEXT ( ( #105, #71, #33 ) ) REPRESENTATION_CONTEXT ( 'NONE', 'WORKASPACE' ) );
#48 = CARTESIAN_POINT ( 'NONE',  ( 0.000000000000000000, 0.000000000000000000, 10.00000000000000000 ) ) ;
#49 = FACE_OUTER_BOUND ( 'NONE', #154, .T. ) ;
#50 = ORIENTED_EDGE ( 'NONE', *, *, #215, .F. ) ;
#51 = CYLINDRICAL_SURFACE ( 'NONE', #114, 12.50000000000000000 ) ;
#52 = CC_DESIGN_DATE_AND_TIME_ASSIGNMENT ( #21, #92, ( #234 ) ) ;
#53 = AXIS2_PLACEMENT_3D ( 'NONE', #66, #218, #165 ) ;
#54 = PERSON_AND_ORGANIZATION_ROLE ( 'design_owner' ) ;
#55 = ORIENTED_EDGE ( 'NONE', *, *, #10, .T. ) ;
#56 = PERSON_AND_ORGANIZATION ( #74, #93 ) ;
#57 = DIRECTION ( 'NONE',  ( -1.000000000000000000, 0.000000000000000000, 0.000000000000000000 ) ) ;
#58 = FACE_OUTER_BOUND ( 'NONE', #132, .T. ) ;
#59 = DATE_AND_TIME ( #159, #158 ) ;
#60 = PERSON_AND_ORGANIZATION ( #74, #93 ) ;
#61 = DIRECTION ( 'NONE',  ( 0.000000000000000000, 0.000000000000000000, 1.000000000000000000 ) ) ;
#62 = ORIENTED_EDGE ( 'NONE', *, *, #144, .T. ) ;
#63 = VECTOR ( 'NONE', #121, 1000.000000000000000 ) ;
#64 = LINE ( 'NONE', #27, #63 ) ;
#65 = DIRECTION ( 'NONE',  ( -0.000000000000000000, -0.000000000000000000, -1.000000000000000000 ) ) ;
#66 = CARTESIAN_POINT ( 'NONE',  ( 0.000000000000000000, 0.000000000000000000, 10.00000000000000000 ) ) ;
#67 = FACE_OUTER_BOUND ( 'NONE', #209, .T. ) ;
#68 = CARTESIAN_POINT ( 'NONE',  ( 0.000000000000000000, 0.000000000000000000, 99.99999999999998579 ) ) ;
#69 = EDGE_CURVE ( 'NONE', #131, #151, #83, .T. ) ;
#70 = ORIENTED_EDGE ( 'NONE', *, *, #142, .T. ) ;
#71 =( NAMED_UNIT ( * ) PLANE_ANGLE_UNIT ( ) SI_UNIT ( $, .RADIAN. ) );
#72 = CLOSED_SHELL ( 'NONE', ( #244, #202, #25, #94, #124, #82, #89 ) ) ;
#73 = ORIENTED_EDGE ( 'NONE', *, *, #96, .F. ) ;
#74 = PERSON ( 'NEURÈENÝ', 'NEURÈENÝ', 'NEURÈENÝ', ('NEURÈENÝ'), ('NEURÈENÝ'), ('NEURÈENÝ') ) ;
#75 = APPROVAL_STATUS ( 'not_yet_approved' ) ;
#76 = CYLINDRICAL_SURFACE ( 'NONE', #162, 12.50000000000000000 ) ;
#77 = EDGE_CURVE ( 'NONE', #137, #88, #84, .T. ) ;
#78 = VERTEX_POINT ( 'NONE', #195 ) ;
#79 = ORIENTED_EDGE ( 'NONE', *, *, #215, .T. ) ;
#80 = LOCAL_TIME ( 9, 39, 30.00000000000000000, #2 ) ;
#81 = APPROVAL_ROLE ( '' ) ;
#82 = ADVANCED_FACE ( 'NONE', ( #183 ), #76, .T. ) ;
#83 = CIRCLE ( 'NONE', #236, 16.00000000000000000 ) ;
#84 = CIRCLE ( 'NONE', #112, 16.00000000000000000 ) ;
#85 = CARTESIAN_POINT ( 'NONE',  ( -16.00000000000000000, 0.000000000000000000, 10.00000000000000000 ) ) ;
#86 = CARTESIAN_POINT ( 'NONE',  ( 12.50000000000000000, 1.530808498934191127E-15, 99.99999999999998579 ) ) ;
#87 = DIRECTION ( 'NONE',  ( 0.000000000000000000, 0.000000000000000000, 1.000000000000000000 ) ) ;
#88 = VERTEX_POINT ( 'NONE', #133 ) ;
#89 = ADVANCED_FACE ( 'NONE', ( #39 ), #115, .T. ) ;
#90 = CALENDAR_DATE ( 2023, 13, 2 ) ;
#91 = CALENDAR_DATE ( 2023, 13, 2 ) ;
#92 = DATE_TIME_ROLE ( 'creation_date' ) ;
#93 = ORGANIZATION ( 'NEURÈENÝ', 'NEURÈENÝ', '' ) ;
#94 = ADVANCED_FACE ( 'NONE', ( #11, #67 ), #200, .T. ) ;
#95 = ORIENTED_EDGE ( 'NONE', *, *, #69, .T. ) ;
#96 = EDGE_CURVE ( 'NONE', #131, #88, #30, .T. ) ;
#97 = CALENDAR_DATE ( 2023, 13, 2 ) ;
#98 = DIRECTION ( 'NONE',  ( 1.000000000000000000, 0.000000000000000000, 0.000000000000000000 ) ) ;
#99 = AXIS2_PLACEMENT_3D ( 'NONE', #16, #227, #156 ) ;
#100 = COORDINATED_UNIVERSAL_TIME_OFFSET ( 1, 0, .AHEAD. ) ;
#101 = CARTESIAN_POINT ( 'NONE',  ( 0.000000000000000000, 0.000000000000000000, 99.99999999999998579 ) ) ;
#102 = CARTESIAN_POINT ( 'NONE',  ( 16.00000000000000000, 1.959434878635765131E-15, 10.00000000000000000 ) ) ;
#103 = VECTOR ( 'NONE', #65, 1000.000000000000000 ) ;
#104 = CARTESIAN_POINT ( 'NONE',  ( 0.000000000000000000, 0.000000000000000000, 0.000000000000000000 ) ) ;
#105 =( LENGTH_UNIT ( ) NAMED_UNIT ( * ) SI_UNIT ( .MILLI., .METRE. ) );
#106 = APPLICATION_PROTOCOL_DEFINITION ( 'international standard', 'config_control_design', 1994, #230 ) ;
#107 = ORIENTED_EDGE ( 'NONE', *, *, #211, .F. ) ;
#108 = ORIENTED_EDGE ( 'NONE', *, *, #96, .T. ) ;
#109 = COORDINATED_UNIVERSAL_TIME_OFFSET ( 1, 0, .AHEAD. ) ;
#110 = VERTEX_POINT ( 'NONE', #44 ) ;
#111 = PERSON_AND_ORGANIZATION ( #74, #93 ) ;
#112 = AXIS2_PLACEMENT_3D ( 'NONE', #253, #61, #139 ) ;
#113 = DATE_AND_TIME ( #97, #217 ) ;
#114 = AXIS2_PLACEMENT_3D ( 'NONE', #101, #28, #6 ) ;
#115 = PLANE ( 'NONE',  #5 ) ;
#116 = DIRECTION ( 'NONE',  ( -1.000000000000000000, 0.000000000000000000, 0.000000000000000000 ) ) ;
#117 = CC_DESIGN_PERSON_AND_ORGANIZATION_ASSIGNMENT ( #111, #160, ( #246 ) ) ;
#118 = PERSON_AND_ORGANIZATION ( #74, #93 ) ;
#119 = ORIENTED_EDGE ( 'NONE', *, *, #155, .F. ) ;
#120 = CYLINDRICAL_SURFACE ( 'NONE', #223, 16.00000000000000000 ) ;
#121 = DIRECTION ( 'NONE',  ( -0.000000000000000000, -0.000000000000000000, -1.000000000000000000 ) ) ;
#122 = CARTESIAN_POINT ( 'NONE',  ( 0.000000000000000000, 0.000000000000000000, 99.99999999999998579 ) ) ;
#123 = DIRECTION ( 'NONE',  ( 0.000000000000000000, 0.000000000000000000, 1.000000000000000000 ) ) ;
#124 = ADVANCED_FACE ( 'NONE', ( #49 ), #245, .F. ) ;
#125 = DIRECTION ( 'NONE',  ( 0.000000000000000000, 0.000000000000000000, 1.000000000000000000 ) ) ;
#126 = EDGE_LOOP ( 'NONE', ( #79, #167 ) ) ;
#127 = DIRECTION ( 'NONE',  ( 0.000000000000000000, 0.000000000000000000, 1.000000000000000000 ) ) ;
#128 = CIRCLE ( 'NONE', #40, 12.50000000000000000 ) ;
#129 = ORIENTED_EDGE ( 'NONE', *, *, #155, .T. ) ;
#130 = APPLICATION_PROTOCOL_DEFINITION ( 'international standard', 'config_control_design', 1994, #201 ) ;
#131 = VERTEX_POINT ( 'NONE', #26 ) ;
#132 = EDGE_LOOP ( 'NONE', ( #73, #231, #203, #207 ) ) ;
#133 = CARTESIAN_POINT ( 'NONE',  ( 16.00000000000000000, 1.959434878635765131E-15, 0.000000000000000000 ) ) ;
#134 = APPROVAL_ROLE ( '' ) ;
#135 = EDGE_CURVE ( 'NONE', #228, #14, #185, .T. ) ;
#136 = ORIENTED_EDGE ( 'NONE', *, *, #10, .F. ) ;
#137 = VERTEX_POINT ( 'NONE', #242 ) ;
#138 = PERSON_AND_ORGANIZATION_ROLE ( 'classification_officer' ) ;
#139 = DIRECTION ( 'NONE',  ( 1.000000000000000000, 0.000000000000000000, 0.000000000000000000 ) ) ;
#140 = SECURITY_CLASSIFICATION_LEVEL ( 'unclassified' ) ;
#141 = CARTESIAN_POINT ( 'NONE',  ( 0.000000000000000000, 0.000000000000000000, 10.00000000000000000 ) ) ;
#142 = EDGE_CURVE ( 'NONE', #88, #137, #20, .T. ) ;
#143 = DIRECTION ( 'NONE',  ( 1.000000000000000000, 0.000000000000000000, -0.000000000000000000 ) ) ;
#144 = EDGE_CURVE ( 'NONE', #151, #131, #173, .T. ) ;
#145 = CC_DESIGN_SECURITY_CLASSIFICATION ( #24, ( #246 ) ) ;
#146 = CARTESIAN_POINT ( 'NONE',  ( -12.50000000000000000, 0.000000000000000000, 99.99999999999998579 ) ) ;
#147 = CARTESIAN_POINT ( 'NONE',  ( 0.000000000000000000, 0.000000000000000000, 99.99999999999998579 ) ) ;
#148 = AXIS2_PLACEMENT_3D ( 'NONE', #204, #172, #196 ) ;
#149 = ORIENTED_EDGE ( 'NONE', *, *, #255, .F. ) ;
#150 = APPROVAL_PERSON_ORGANIZATION ( #192, #7, #81 ) ;
#151 = VERTEX_POINT ( 'NONE', #85 ) ;
#152 = ORIENTED_EDGE ( 'NONE', *, *, #142, .F. ) ;
#153 = MANIFOLD_SOLID_BREP ( 'Pøidat vysunutím3', #72 ) ;
#154 = EDGE_LOOP ( 'NONE', ( #221, #152 ) ) ;
#155 = EDGE_CURVE ( 'NONE', #78, #110, #219, .T. ) ;
#156 = DIRECTION ( 'NONE',  ( 1.000000000000000000, 0.000000000000000000, 0.000000000000000000 ) ) ;
#157 = CARTESIAN_POINT ( 'NONE',  ( 0.000000000000000000, 0.000000000000000000, 99.99999999999998579 ) ) ;
#158 = LOCAL_TIME ( 9, 39, 30.00000000000000000, #100 ) ;
#159 = CALENDAR_DATE ( 2023, 13, 2 ) ;
#160 = PERSON_AND_ORGANIZATION_ROLE ( 'creator' ) ;
#161 = DIRECTION ( 'NONE',  ( 0.000000000000000000, 0.000000000000000000, 1.000000000000000000 ) ) ;
#162 = AXIS2_PLACEMENT_3D ( 'NONE', #157, #233, #57 ) ;
#163 = AXIS2_PLACEMENT_3D ( 'NONE', #141, #161, #98 ) ;
#164 = PRODUCT_RELATED_PRODUCT_CATEGORY ( 'detail', '', ( #175 ) ) ;
#165 = DIRECTION ( 'NONE',  ( -1.000000000000000000, 0.000000000000000000, 0.000000000000000000 ) ) ;
#166 = CC_DESIGN_APPROVAL ( #36, ( #234 ) ) ;
#167 = ORIENTED_EDGE ( 'NONE', *, *, #240, .T. ) ;
#168 = CARTESIAN_POINT ( 'NONE',  ( 0.000000000000000000, 0.000000000000000000, 0.000000000000000000 ) ) ;
#169 = FACE_OUTER_BOUND ( 'NONE', #17, .T. ) ;
#170 = LOCAL_TIME ( 9, 39, 30.00000000000000000, #109 ) ;
#171 = VECTOR ( 'NONE', #214, 1000.000000000000000 ) ;
#172 = DIRECTION ( 'NONE',  ( 0.000000000000000000, 0.000000000000000000, 1.000000000000000000 ) ) ;
#173 = CIRCLE ( 'NONE', #229, 16.00000000000000000 ) ;
#174 = PERSON_AND_ORGANIZATION ( #74, #93 ) ;
#175 = PRODUCT ( 'c316', 'c316', '', ( #224 ) ) ;
#176 = CC_DESIGN_PERSON_AND_ORGANIZATION_ASSIGNMENT ( #174, #54, ( #175 ) ) ;
#177 = APPROVAL_DATE_TIME ( #188, #36 ) ;
#178 = PERSON_AND_ORGANIZATION ( #74, #93 ) ;
#179 = AXIS2_PLACEMENT_3D ( 'NONE', #48, #184, #46 ) ;
#180 = SHAPE_DEFINITION_REPRESENTATION ( #225, #15 ) ;
#181 = CARTESIAN_POINT ( 'NONE',  ( 0.000000000000000000, 0.000000000000000000, 10.00000000000000000 ) ) ;
#182 = DIRECTION ( 'NONE',  ( 0.000000000000000000, 0.000000000000000000, 1.000000000000000000 ) ) ;
#183 = FACE_OUTER_BOUND ( 'NONE', #189, .T. ) ;
#184 = DIRECTION ( 'NONE',  ( 0.000000000000000000, 0.000000000000000000, 1.000000000000000000 ) ) ;
#185 = LINE ( 'NONE', #146, #29 ) ;
#186 = DIRECTION ( 'NONE',  ( 0.000000000000000000, 0.000000000000000000, 1.000000000000000000 ) ) ;
#187 = EDGE_LOOP ( 'NONE', ( #136, #107 ) ) ;
#188 = DATE_AND_TIME ( #91, #170 ) ;
#189 = EDGE_LOOP ( 'NONE', ( #119, #50, #37, #55 ) ) ;
#190 = COORDINATED_UNIVERSAL_TIME_OFFSET ( 1, 0, .AHEAD. ) ;
#191 = APPROVAL_PERSON_ORGANIZATION ( #178, #249, #134 ) ;
#192 = PERSON_AND_ORGANIZATION ( #74, #93 ) ;
#193 = CC_DESIGN_DATE_AND_TIME_ASSIGNMENT ( #113, #212, ( #24 ) ) ;
#194 = CIRCLE ( 'NONE', #179, 12.50000000000000000 ) ;
#195 = CARTESIAN_POINT ( 'NONE',  ( 12.50000000000000000, 1.530808498934191127E-15, 99.99999999999998579 ) ) ;
#196 = DIRECTION ( 'NONE',  ( 1.000000000000000000, 0.000000000000000000, -0.000000000000000000 ) ) ;
#197 = DIRECTION ( 'NONE',  ( 1.000000000000000000, 0.000000000000000000, 0.000000000000000000 ) ) ;
#198 = DIRECTION ( 'NONE',  ( 1.000000000000000000, 0.000000000000000000, 0.000000000000000000 ) ) ;
#199 = DESIGN_CONTEXT ( 'detailed design', #201, 'design' ) ;
#200 = PLANE ( 'NONE',  #148 ) ;
#201 = APPLICATION_CONTEXT ( 'configuration controlled 3d designs of mechanical parts and assemblies' ) ;
#202 = ADVANCED_FACE ( 'NONE', ( #169 ), #9, .T. ) ;
#203 = ORIENTED_EDGE ( 'NONE', *, *, #255, .T. ) ;
#204 = CARTESIAN_POINT ( 'NONE',  ( 0.000000000000000000, 0.000000000000000000, 10.00000000000000000 ) ) ;
#205 = APPROVAL_PERSON_ORGANIZATION ( #56, #36, #35 ) ;
#206 = APPROVAL_STATUS ( 'not_yet_approved' ) ;
#207 = ORIENTED_EDGE ( 'NONE', *, *, #77, .T. ) ;
#208 = AXIS2_PLACEMENT_3D ( 'NONE', #122, #125, #198 ) ;
#209 = EDGE_LOOP ( 'NONE', ( #62, #95 ) ) ;
#210 = COORDINATED_UNIVERSAL_TIME_OFFSET ( 1, 0, .AHEAD. ) ;
#211 = EDGE_CURVE ( 'NONE', #110, #14, #194, .T. ) ;
#212 = DATE_TIME_ROLE ( 'classification_date' ) ;
#213 = CARTESIAN_POINT ( 'NONE',  ( -12.50000000000000000, 0.000000000000000000, 10.00000000000000000 ) ) ;
#214 = DIRECTION ( 'NONE',  ( -0.000000000000000000, -0.000000000000000000, -1.000000000000000000 ) ) ;
#215 = EDGE_CURVE ( 'NONE', #228, #78, #23, .T. ) ;
#216 = DIRECTION ( 'NONE',  ( 1.000000000000000000, 0.000000000000000000, 0.000000000000000000 ) ) ;
#217 = LOCAL_TIME ( 9, 39, 30.00000000000000000, #210 ) ;
#218 = DIRECTION ( 'NONE',  ( -0.000000000000000000, -0.000000000000000000, -1.000000000000000000 ) ) ;
#219 = LINE ( 'NONE', #86, #171 ) ;
#220 = CC_DESIGN_PERSON_AND_ORGANIZATION_ASSIGNMENT ( #60, #138, ( #24 ) ) ;
#221 = ORIENTED_EDGE ( 'NONE', *, *, #77, .F. ) ;
#222 = FACE_OUTER_BOUND ( 'NONE', #237, .T. ) ;
#223 = AXIS2_PLACEMENT_3D ( 'NONE', #41, #42, #116 ) ;
#224 = MECHANICAL_CONTEXT ( 'NONE', #230, 'mechanical' ) ;
#225 = PRODUCT_DEFINITION_SHAPE ( 'NONE', 'NONE',  #234 ) ;
#226 = ORIENTED_EDGE ( 'NONE', *, *, #240, .F. ) ;
#227 = DIRECTION ( 'NONE',  ( 0.000000000000000000, 0.000000000000000000, 1.000000000000000000 ) ) ;
#228 = VERTEX_POINT ( 'NONE', #13 ) ;
#229 = AXIS2_PLACEMENT_3D ( 'NONE', #241, #123, #216 ) ;
#230 = APPLICATION_CONTEXT ( 'configuration controlled 3d designs of mechanical parts and assemblies' ) ;
#231 = ORIENTED_EDGE ( 'NONE', *, *, #144, .F. ) ;
#232 = CC_DESIGN_PERSON_AND_ORGANIZATION_ASSIGNMENT ( #18, #251, ( #234 ) ) ;
#233 = DIRECTION ( 'NONE',  ( -0.000000000000000000, -0.000000000000000000, -1.000000000000000000 ) ) ;
#234 = PRODUCT_DEFINITION ( 'NEZNÁMÝ', '', #246, #199 ) ;
#235 = DIRECTION ( 'NONE',  ( 1.000000000000000000, 0.000000000000000000, 0.000000000000000000 ) ) ;
#236 = AXIS2_PLACEMENT_3D ( 'NONE', #181, #182, #235 ) ;
#237 = EDGE_LOOP ( 'NONE', ( #226, #129, #3, #34 ) ) ;
#238 = CC_DESIGN_APPROVAL ( #7, ( #24 ) ) ;
#239 = DIRECTION ( 'NONE',  ( 1.000000000000000000, 0.000000000000000000, 0.000000000000000000 ) ) ;
#240 = EDGE_CURVE ( 'NONE', #78, #228, #128, .T. ) ;
#241 = CARTESIAN_POINT ( 'NONE',  ( 0.000000000000000000, 0.000000000000000000, 10.00000000000000000 ) ) ;
#242 = CARTESIAN_POINT ( 'NONE',  ( -16.00000000000000000, 0.000000000000000000, 0.000000000000000000 ) ) ;
#243 = UNCERTAINTY_MEASURE_WITH_UNIT (LENGTH_MEASURE( 1.000000000000000082E-05 ), #105, 'distance_accuracy_value', 'NONE');
#244 = ADVANCED_FACE ( 'NONE', ( #222 ), #51, .T. ) ;
#245 = PLANE ( 'NONE',  #250 ) ;
#246 = PRODUCT_DEFINITION_FORMATION_WITH_SPECIFIED_SOURCE ( 'LIBOVOLNÝ', '', #175, .NOT_KNOWN. ) ;
#247 = DIRECTION ( 'NONE',  ( -0.000000000000000000, -0.000000000000000000, -1.000000000000000000 ) ) ;
#248 = ORIENTED_EDGE ( 'NONE', *, *, #69, .F. ) ;
#249 = APPROVAL ( #252, 'NEURÈENÝ' ) ;
#250 = AXIS2_PLACEMENT_3D ( 'NONE', #104, #87, #143 ) ;
#251 = PERSON_AND_ORGANIZATION_ROLE ( 'creator' ) ;
#252 = APPROVAL_STATUS ( 'not_yet_approved' ) ;
#253 = CARTESIAN_POINT ( 'NONE',  ( 0.000000000000000000, 0.000000000000000000, 0.000000000000000000 ) ) ;
#254 = DATE_AND_TIME ( #38, #80 ) ;
#255 = EDGE_CURVE ( 'NONE', #151, #137, #64, .T. ) ;
ENDSEC;
END-ISO-10303-21;
