ISO-10303-21;
HEADER;
FILE_DESCRIPTION (( 'STEP AP203' ),
    '1' );
FILE_NAME ('7f1f.STEP',
    '2023-02-13T17:03:58',
    ( '' ),
    ( '' ),
    'SwSTEP 2.0',
    'SolidWorks 2019',
    '' );
FILE_SCHEMA (( 'CONFIG_CONTROL_DESIGN' ));
ENDSEC;

DATA;
#1 = PERSON_AND_ORGANIZATION ( #6, #32 ) ;
#2 = CYLINDRICAL_SURFACE ( 'NONE', #49, 2.500000000000000000 ) ;
#3 = ORIENTED_EDGE ( 'NONE', *, *, #124, .F. ) ;
#4 = DIRECTION ( 'NONE',  ( 1.000000000000000000, 0.000000000000000000, 0.000000000000000000 ) ) ;
#5 = LINE ( 'NONE', #60, #53 ) ;
#6 = PERSON ( 'NEURÈENÝ', 'NEURÈENÝ', 'NEURÈENÝ', ('NEURÈENÝ'), ('NEURÈENÝ'), ('NEURÈENÝ') ) ;
#7 = DIRECTION ( 'NONE',  ( 0.000000000000000000, 0.000000000000000000, 1.000000000000000000 ) ) ;
#8 = COORDINATED_UNIVERSAL_TIME_OFFSET ( 1, 0, .AHEAD. ) ;
#9 = PERSON_AND_ORGANIZATION ( #6, #32 ) ;
#10 = AXIS2_PLACEMENT_3D ( 'NONE', #248, #195, #235 ) ;
#11 = DIRECTION ( 'NONE',  ( -1.000000000000000000, 0.000000000000000000, 0.000000000000000000 ) ) ;
#12 = CC_DESIGN_PERSON_AND_ORGANIZATION_ASSIGNMENT ( #201, #103, ( #19 ) ) ;
#13 = CARTESIAN_POINT ( 'NONE',  ( 2.500000000000000000, 3.061616997868383141E-16, 2.000000000000000000 ) ) ;
#14 = EDGE_CURVE ( 'NONE', #179, #177, #28, .T. ) ;
#15 = CC_DESIGN_PERSON_AND_ORGANIZATION_ASSIGNMENT ( #121, #205, ( #216 ) ) ;
#16 = ORIENTED_EDGE ( 'NONE', *, *, #89, .T. ) ;
#17 = ORIENTED_EDGE ( 'NONE', *, *, #66, .T. ) ;
#18 = APPLICATION_PROTOCOL_DEFINITION ( 'international standard', 'config_control_design', 1994, #163 ) ;
#19 = PRODUCT_DEFINITION_FORMATION_WITH_SPECIFIED_SOURCE ( 'LIBOVOLNÝ', '', #95, .NOT_KNOWN. ) ;
#20 = CYLINDRICAL_SURFACE ( 'NONE', #10, 1.250000000000000000 ) ;
#21 =( LENGTH_UNIT ( ) NAMED_UNIT ( * ) SI_UNIT ( .MILLI., .METRE. ) );
#22 = CARTESIAN_POINT ( 'NONE',  ( 0.000000000000000000, 0.000000000000000000, 2.000000000000000000 ) ) ;
#23 = DIRECTION ( 'NONE',  ( -0.000000000000000000, -0.000000000000000000, -1.000000000000000000 ) ) ;
#24 = CARTESIAN_POINT ( 'NONE',  ( 0.000000000000000000, 0.000000000000000000, 315.0000000000000000 ) ) ;
#25 =( NAMED_UNIT ( * ) PLANE_ANGLE_UNIT ( ) SI_UNIT ( $, .RADIAN. ) );
#26 = AXIS2_PLACEMENT_3D ( 'NONE', #91, #158, #131 ) ;
#27 = APPROVAL_DATE_TIME ( #62, #244 ) ;
#28 = CIRCLE ( 'NONE', #188, 2.500000000000000000 ) ;
#29 = PERSON_AND_ORGANIZATION_ROLE ( 'creator' ) ;
#30 = PERSON_AND_ORGANIZATION_ROLE ( 'creator' ) ;
#31 = VECTOR ( 'NONE', #84, 1000.000000000000000 ) ;
#32 = ORGANIZATION ( 'NEURÈENÝ', 'NEURÈENÝ', '' ) ;
#33 = DIRECTION ( 'NONE',  ( 1.000000000000000000, 0.000000000000000000, 0.000000000000000000 ) ) ;
#34 = ADVANCED_FACE ( 'NONE', ( #92 ), #2, .T. ) ;
#35 = ORIENTED_EDGE ( 'NONE', *, *, #104, .T. ) ;
#36 = DIRECTION ( 'NONE',  ( 0.000000000000000000, 0.000000000000000000, 1.000000000000000000 ) ) ;
#37 = ORIENTED_EDGE ( 'NONE', *, *, #245, .F. ) ;
#38 = PERSON_AND_ORGANIZATION ( #6, #32 ) ;
#39 = VERTEX_POINT ( 'NONE', #85 ) ;
#40 = ORIENTED_EDGE ( 'NONE', *, *, #144, .F. ) ;
#41 = AXIS2_PLACEMENT_3D ( 'NONE', #178, #75, #237 ) ;
#42 = CALENDAR_DATE ( 2023, 13, 2 ) ;
#43 = CIRCLE ( 'NONE', #83, 1.250000000000000000 ) ;
#44 = EDGE_CURVE ( 'NONE', #255, #217, #138, .T. ) ;
#45 = APPROVAL_ROLE ( '' ) ;
#46 = CYLINDRICAL_SURFACE ( 'NONE', #112, 2.500000000000000000 ) ;
#47 = CC_DESIGN_APPROVAL ( #189, ( #216 ) ) ;
#48 = CALENDAR_DATE ( 2023, 13, 2 ) ;
#49 = AXIS2_PLACEMENT_3D ( 'NONE', #74, #23, #93 ) ;
#50 = AXIS2_PLACEMENT_3D ( 'NONE', #221, #119, #183 ) ;
#51 = DIRECTION ( 'NONE',  ( 1.000000000000000000, 0.000000000000000000, 0.000000000000000000 ) ) ;
#52 = ORIENTED_EDGE ( 'NONE', *, *, #14, .T. ) ;
#53 = VECTOR ( 'NONE', #97, 1000.000000000000000 ) ;
#54 = PLANE ( 'NONE',  #114 ) ;
#55 = ORIENTED_EDGE ( 'NONE', *, *, #14, .F. ) ;
#56 = EDGE_CURVE ( 'NONE', #128, #174, #43, .T. ) ;
#57 = CARTESIAN_POINT ( 'NONE',  ( 2.500000000000000000, 3.061616997868383141E-16, 0.000000000000000000 ) ) ;
#58 = ADVANCED_FACE ( 'NONE', ( #240 ), #180, .F. ) ;
#59 = DATE_AND_TIME ( #223, #162 ) ;
#60 = CARTESIAN_POINT ( 'NONE',  ( 1.250000000000000000, 1.530808498934191571E-16, 315.0000000000000000 ) ) ;
#61 = CIRCLE ( 'NONE', #238, 2.500000000000000000 ) ;
#62 = DATE_AND_TIME ( #48, #167 ) ;
#63 = APPROVAL_ROLE ( '' ) ;
#64 = DIRECTION ( 'NONE',  ( 1.000000000000000000, 0.000000000000000000, -0.000000000000000000 ) ) ;
#65 = PERSON_AND_ORGANIZATION ( #6, #32 ) ;
#66 = EDGE_CURVE ( 'NONE', #128, #255, #5, .T. ) ;
#67 = ADVANCED_BREP_SHAPE_REPRESENTATION ( '7f1f', ( #123, #26 ), #79 ) ;
#68 = PERSON_AND_ORGANIZATION ( #6, #32 ) ;
#69 = DIRECTION ( 'NONE',  ( 1.000000000000000000, 0.000000000000000000, 0.000000000000000000 ) ) ;
#70 = LINE ( 'NONE', #212, #31 ) ;
#71 = DIRECTION ( 'NONE',  ( 0.000000000000000000, 0.000000000000000000, 1.000000000000000000 ) ) ;
#72 = ORIENTED_EDGE ( 'NONE', *, *, #56, .F. ) ;
#73 = EDGE_CURVE ( 'NONE', #177, #39, #115, .T. ) ;
#74 = CARTESIAN_POINT ( 'NONE',  ( 0.000000000000000000, 0.000000000000000000, 2.000000000000000000 ) ) ;
#75 = DIRECTION ( 'NONE',  ( 0.000000000000000000, 0.000000000000000000, 1.000000000000000000 ) ) ;
#76 = LOCAL_TIME ( 18, 3, 58.00000000000000000, #98 ) ;
#77 = DIRECTION ( 'NONE',  ( -1.000000000000000000, 0.000000000000000000, 0.000000000000000000 ) ) ;
#78 = CALENDAR_DATE ( 2023, 13, 2 ) ;
#79 =( GEOMETRIC_REPRESENTATION_CONTEXT ( 3 ) GLOBAL_UNCERTAINTY_ASSIGNED_CONTEXT ( ( #88 ) ) GLOBAL_UNIT_ASSIGNED_CONTEXT ( ( #21, #25, #161 ) ) REPRESENTATION_CONTEXT ( 'NONE', 'WORKASPACE' ) );
#80 = CALENDAR_DATE ( 2023, 13, 2 ) ;
#81 = VECTOR ( 'NONE', #202, 1000.000000000000000 ) ;
#82 = PERSON_AND_ORGANIZATION ( #6, #32 ) ;
#83 = AXIS2_PLACEMENT_3D ( 'NONE', #153, #199, #219 ) ;
#84 = DIRECTION ( 'NONE',  ( -0.000000000000000000, -0.000000000000000000, -1.000000000000000000 ) ) ;
#85 = CARTESIAN_POINT ( 'NONE',  ( -2.500000000000000000, 0.000000000000000000, 0.000000000000000000 ) ) ;
#86 = ORIENTED_EDGE ( 'NONE', *, *, #144, .T. ) ;
#87 = EDGE_LOOP ( 'NONE', ( #150, #109, #86, #231 ) ) ;
#88 = UNCERTAINTY_MEASURE_WITH_UNIT (LENGTH_MEASURE( 1.000000000000000082E-05 ), #21, 'distance_accuracy_value', 'NONE');
#89 = EDGE_CURVE ( 'NONE', #39, #236, #106, .T. ) ;
#90 = DIRECTION ( 'NONE',  ( -0.000000000000000000, -0.000000000000000000, -1.000000000000000000 ) ) ;
#91 = CARTESIAN_POINT ( 'NONE',  ( 0.000000000000000000, 0.000000000000000000, 0.000000000000000000 ) ) ;
#92 = FACE_OUTER_BOUND ( 'NONE', #209, .T. ) ;
#93 = DIRECTION ( 'NONE',  ( -1.000000000000000000, 0.000000000000000000, 0.000000000000000000 ) ) ;
#94 = CARTESIAN_POINT ( 'NONE',  ( 0.000000000000000000, 0.000000000000000000, 2.000000000000000000 ) ) ;
#95 = PRODUCT ( '7f1f', '7f1f', '', ( #156 ) ) ;
#96 = APPROVAL_DATE_TIME ( #241, #189 ) ;
#97 = DIRECTION ( 'NONE',  ( -0.000000000000000000, -0.000000000000000000, -1.000000000000000000 ) ) ;
#98 = COORDINATED_UNIVERSAL_TIME_OFFSET ( 1, 0, .AHEAD. ) ;
#99 = APPROVAL_PERSON_ORGANIZATION ( #68, #168, #45 ) ;
#100 = DATE_AND_TIME ( #80, #135 ) ;
#101 = CARTESIAN_POINT ( 'NONE',  ( 0.000000000000000000, 0.000000000000000000, 0.000000000000000000 ) ) ;
#102 = COORDINATED_UNIVERSAL_TIME_OFFSET ( 1, 0, .AHEAD. ) ;
#103 = PERSON_AND_ORGANIZATION_ROLE ( 'design_supplier' ) ;
#104 = EDGE_CURVE ( 'NONE', #179, #236, #224, .T. ) ;
#105 = ADVANCED_FACE ( 'NONE', ( #142 ), #46, .T. ) ;
#106 = CIRCLE ( 'NONE', #50, 2.500000000000000000 ) ;
#107 = DIRECTION ( 'NONE',  ( 0.000000000000000000, 0.000000000000000000, 1.000000000000000000 ) ) ;
#108 = CARTESIAN_POINT ( 'NONE',  ( 1.250000000000000000, 1.530808498934191571E-16, 2.000000000000000000 ) ) ;
#109 = ORIENTED_EDGE ( 'NONE', *, *, #239, .F. ) ;
#110 = ORIENTED_EDGE ( 'NONE', *, *, #56, .T. ) ;
#111 = CARTESIAN_POINT ( 'NONE',  ( -1.250000000000000000, 0.000000000000000000, 2.000000000000000000 ) ) ;
#112 = AXIS2_PLACEMENT_3D ( 'NONE', #143, #118, #77 ) ;
#113 = ORIENTED_EDGE ( 'NONE', *, *, #245, .T. ) ;
#114 = AXIS2_PLACEMENT_3D ( 'NONE', #127, #107, #171 ) ;
#115 = LINE ( 'NONE', #204, #226 ) ;
#116 = CARTESIAN_POINT ( 'NONE',  ( 2.500000000000000000, 3.061616997868383141E-16, 2.000000000000000000 ) ) ;
#117 = DATE_TIME_ROLE ( 'classification_date' ) ;
#118 = DIRECTION ( 'NONE',  ( -0.000000000000000000, -0.000000000000000000, -1.000000000000000000 ) ) ;
#119 = DIRECTION ( 'NONE',  ( 0.000000000000000000, 0.000000000000000000, 1.000000000000000000 ) ) ;
#120 = CC_DESIGN_SECURITY_CLASSIFICATION ( #216, ( #19 ) ) ;
#121 = PERSON_AND_ORGANIZATION ( #6, #32 ) ;
#122 = ADVANCED_FACE ( 'NONE', ( #160 ), #20, .T. ) ;
#123 = MANIFOLD_SOLID_BREP ( 'Pøidat vysunutím3', #247 ) ;
#124 = EDGE_CURVE ( 'NONE', #236, #39, #197, .T. ) ;
#125 = ORIENTED_EDGE ( 'NONE', *, *, #89, .F. ) ;
#126 = APPROVAL_PERSON_ORGANIZATION ( #82, #244, #243 ) ;
#127 = CARTESIAN_POINT ( 'NONE',  ( 0.000000000000000000, 0.000000000000000000, 2.000000000000000000 ) ) ;
#128 = VERTEX_POINT ( 'NONE', #169 ) ;
#129 = PLANE ( 'NONE',  #210 ) ;
#130 = ADVANCED_FACE ( 'NONE', ( #208 ), #129, .T. ) ;
#131 = DIRECTION ( 'NONE',  ( 1.000000000000000000, 0.000000000000000000, 0.000000000000000000 ) ) ;
#132 = EDGE_LOOP ( 'NONE', ( #215, #110 ) ) ;
#133 = CYLINDRICAL_SURFACE ( 'NONE', #140, 1.250000000000000000 ) ;
#134 = EDGE_LOOP ( 'NONE', ( #234, #233 ) ) ;
#135 = LOCAL_TIME ( 18, 3, 58.00000000000000000, #185 ) ;
#136 = EDGE_LOOP ( 'NONE', ( #125, #3 ) ) ;
#137 = DIRECTION ( 'NONE',  ( 0.000000000000000000, 0.000000000000000000, 1.000000000000000000 ) ) ;
#138 = CIRCLE ( 'NONE', #254, 1.250000000000000000 ) ;
#139 = CC_DESIGN_PERSON_AND_ORGANIZATION_ASSIGNMENT ( #65, #30, ( #19 ) ) ;
#140 = AXIS2_PLACEMENT_3D ( 'NONE', #213, #90, #11 ) ;
#141 = SECURITY_CLASSIFICATION_LEVEL ( 'unclassified' ) ;
#142 = FACE_OUTER_BOUND ( 'NONE', #172, .T. ) ;
#143 = CARTESIAN_POINT ( 'NONE',  ( 0.000000000000000000, 0.000000000000000000, 2.000000000000000000 ) ) ;
#144 = EDGE_CURVE ( 'NONE', #174, #217, #70, .T. ) ;
#145 = CC_DESIGN_APPROVAL ( #244, ( #19 ) ) ;
#146 = PRODUCT_RELATED_PRODUCT_CATEGORY ( 'detail', '', ( #95 ) ) ;
#147 = AXIS2_PLACEMENT_3D ( 'NONE', #149, #230, #51 ) ;
#148 = ADVANCED_FACE ( 'NONE', ( #232, #193 ), #54, .T. ) ;
#149 = CARTESIAN_POINT ( 'NONE',  ( 0.000000000000000000, 0.000000000000000000, 0.000000000000000000 ) ) ;
#150 = ORIENTED_EDGE ( 'NONE', *, *, #66, .F. ) ;
#151 = ADVANCED_FACE ( 'NONE', ( #154 ), #133, .T. ) ;
#152 = DIRECTION ( 'NONE',  ( 1.000000000000000000, 0.000000000000000000, -0.000000000000000000 ) ) ;
#153 = CARTESIAN_POINT ( 'NONE',  ( 0.000000000000000000, 0.000000000000000000, 315.0000000000000000 ) ) ;
#154 = FACE_OUTER_BOUND ( 'NONE', #87, .T. ) ;
#155 = EDGE_LOOP ( 'NONE', ( #113, #52 ) ) ;
#156 = MECHANICAL_CONTEXT ( 'NONE', #163, 'mechanical' ) ;
#157 = ORIENTED_EDGE ( 'NONE', *, *, #73, .F. ) ;
#158 = DIRECTION ( 'NONE',  ( 0.000000000000000000, 0.000000000000000000, 1.000000000000000000 ) ) ;
#159 = CC_DESIGN_PERSON_AND_ORGANIZATION_ASSIGNMENT ( #9, #29, ( #184 ) ) ;
#160 = FACE_OUTER_BOUND ( 'NONE', #190, .T. ) ;
#161 =( NAMED_UNIT ( * ) SI_UNIT ( $, .STERADIAN. ) SOLID_ANGLE_UNIT ( ) );
#162 = LOCAL_TIME ( 18, 3, 58.00000000000000000, #102 ) ;
#163 = APPLICATION_CONTEXT ( 'configuration controlled 3d designs of mechanical parts and assemblies' ) ;
#164 = APPROVAL_STATUS ( 'not_yet_approved' ) ;
#165 = DIRECTION ( 'NONE',  ( 0.000000000000000000, 0.000000000000000000, 1.000000000000000000 ) ) ;
#166 = SHAPE_DEFINITION_REPRESENTATION ( #200, #67 ) ;
#167 = LOCAL_TIME ( 18, 3, 58.00000000000000000, #225 ) ;
#168 = APPROVAL ( #242, 'NEURÈENÝ' ) ;
#169 = CARTESIAN_POINT ( 'NONE',  ( 1.250000000000000000, 1.530808498934191571E-16, 315.0000000000000000 ) ) ;
#170 = CARTESIAN_POINT ( 'NONE',  ( 0.000000000000000000, 0.000000000000000000, 2.000000000000000000 ) ) ;
#171 = DIRECTION ( 'NONE',  ( 1.000000000000000000, 0.000000000000000000, -0.000000000000000000 ) ) ;
#172 = EDGE_LOOP ( 'NONE', ( #196, #37, #252, #16 ) ) ;
#173 = CIRCLE ( 'NONE', #41, 1.250000000000000000 ) ;
#174 = VERTEX_POINT ( 'NONE', #181 ) ;
#175 = APPLICATION_CONTEXT ( 'configuration controlled 3d designs of mechanical parts and assemblies' ) ;
#176 = APPLICATION_PROTOCOL_DEFINITION ( 'international standard', 'config_control_design', 1994, #175 ) ;
#177 = VERTEX_POINT ( 'NONE', #187 ) ;
#178 = CARTESIAN_POINT ( 'NONE',  ( 0.000000000000000000, 0.000000000000000000, 2.000000000000000000 ) ) ;
#179 = VERTEX_POINT ( 'NONE', #13 ) ;
#180 = PLANE ( 'NONE',  #211 ) ;
#181 = CARTESIAN_POINT ( 'NONE',  ( -1.250000000000000000, 0.000000000000000000, 315.0000000000000000 ) ) ;
#182 = DIRECTION ( 'NONE',  ( -0.000000000000000000, -0.000000000000000000, -1.000000000000000000 ) ) ;
#183 = DIRECTION ( 'NONE',  ( 1.000000000000000000, 0.000000000000000000, 0.000000000000000000 ) ) ;
#184 = PRODUCT_DEFINITION ( 'NEZNÁMÝ', '', #19, #191 ) ;
#185 = COORDINATED_UNIVERSAL_TIME_OFFSET ( 1, 0, .AHEAD. ) ;
#186 = DATE_TIME_ROLE ( 'creation_date' ) ;
#187 = CARTESIAN_POINT ( 'NONE',  ( -2.500000000000000000, 0.000000000000000000, 2.000000000000000000 ) ) ;
#188 = AXIS2_PLACEMENT_3D ( 'NONE', #22, #71, #33 ) ;
#189 = APPROVAL ( #194, 'NEURÈENÝ' ) ;
#190 = EDGE_LOOP ( 'NONE', ( #72, #17, #198, #40 ) ) ;
#191 = DESIGN_CONTEXT ( 'detailed design', #175, 'design' ) ;
#192 = ORIENTED_EDGE ( 'NONE', *, *, #124, .T. ) ;
#193 = FACE_OUTER_BOUND ( 'NONE', #155, .T. ) ;
#194 = APPROVAL_STATUS ( 'not_yet_approved' ) ;
#195 = DIRECTION ( 'NONE',  ( -0.000000000000000000, -0.000000000000000000, -1.000000000000000000 ) ) ;
#196 = ORIENTED_EDGE ( 'NONE', *, *, #104, .F. ) ;
#197 = CIRCLE ( 'NONE', #147, 2.500000000000000000 ) ;
#198 = ORIENTED_EDGE ( 'NONE', *, *, #44, .T. ) ;
#199 = DIRECTION ( 'NONE',  ( 0.000000000000000000, 0.000000000000000000, 1.000000000000000000 ) ) ;
#200 = PRODUCT_DEFINITION_SHAPE ( 'NONE', 'NONE',  #184 ) ;
#201 = PERSON_AND_ORGANIZATION ( #6, #32 ) ;
#202 = DIRECTION ( 'NONE',  ( -0.000000000000000000, -0.000000000000000000, -1.000000000000000000 ) ) ;
#203 = CC_DESIGN_DATE_AND_TIME_ASSIGNMENT ( #59, #117, ( #216 ) ) ;
#204 = CARTESIAN_POINT ( 'NONE',  ( -2.500000000000000000, 0.000000000000000000, 2.000000000000000000 ) ) ;
#205 = PERSON_AND_ORGANIZATION_ROLE ( 'classification_officer' ) ;
#206 = APPROVAL_DATE_TIME ( #227, #168 ) ;
#207 = AXIS2_PLACEMENT_3D ( 'NONE', #24, #137, #4 ) ;
#208 = FACE_OUTER_BOUND ( 'NONE', #132, .T. ) ;
#209 = EDGE_LOOP ( 'NONE', ( #55, #35, #192, #157 ) ) ;
#210 = AXIS2_PLACEMENT_3D ( 'NONE', #251, #36, #152 ) ;
#211 = AXIS2_PLACEMENT_3D ( 'NONE', #101, #165, #64 ) ;
#212 = CARTESIAN_POINT ( 'NONE',  ( -1.250000000000000000, 0.000000000000000000, 315.0000000000000000 ) ) ;
#213 = CARTESIAN_POINT ( 'NONE',  ( 0.000000000000000000, 0.000000000000000000, 315.0000000000000000 ) ) ;
#214 = PERSON_AND_ORGANIZATION_ROLE ( 'design_owner' ) ;
#215 = ORIENTED_EDGE ( 'NONE', *, *, #239, .T. ) ;
#216 = SECURITY_CLASSIFICATION ( '', '', #141 ) ;
#217 = VERTEX_POINT ( 'NONE', #111 ) ;
#218 = EDGE_CURVE ( 'NONE', #217, #255, #173, .T. ) ;
#219 = DIRECTION ( 'NONE',  ( 1.000000000000000000, 0.000000000000000000, 0.000000000000000000 ) ) ;
#220 = CC_DESIGN_APPROVAL ( #168, ( #184 ) ) ;
#221 = CARTESIAN_POINT ( 'NONE',  ( 0.000000000000000000, 0.000000000000000000, 0.000000000000000000 ) ) ;
#222 = DIRECTION ( 'NONE',  ( 1.000000000000000000, 0.000000000000000000, 0.000000000000000000 ) ) ;
#223 = CALENDAR_DATE ( 2023, 13, 2 ) ;
#224 = LINE ( 'NONE', #116, #81 ) ;
#225 = COORDINATED_UNIVERSAL_TIME_OFFSET ( 1, 0, .AHEAD. ) ;
#226 = VECTOR ( 'NONE', #182, 1000.000000000000000 ) ;
#227 = DATE_AND_TIME ( #42, #76 ) ;
#228 = CC_DESIGN_PERSON_AND_ORGANIZATION_ASSIGNMENT ( #1, #214, ( #95 ) ) ;
#229 = LOCAL_TIME ( 18, 3, 58.00000000000000000, #8 ) ;
#230 = DIRECTION ( 'NONE',  ( 0.000000000000000000, 0.000000000000000000, 1.000000000000000000 ) ) ;
#231 = ORIENTED_EDGE ( 'NONE', *, *, #218, .T. ) ;
#232 = FACE_BOUND ( 'NONE', #134, .T. ) ;
#233 = ORIENTED_EDGE ( 'NONE', *, *, #44, .F. ) ;
#234 = ORIENTED_EDGE ( 'NONE', *, *, #218, .F. ) ;
#235 = DIRECTION ( 'NONE',  ( -1.000000000000000000, 0.000000000000000000, 0.000000000000000000 ) ) ;
#236 = VERTEX_POINT ( 'NONE', #57 ) ;
#237 = DIRECTION ( 'NONE',  ( 1.000000000000000000, 0.000000000000000000, 0.000000000000000000 ) ) ;
#238 = AXIS2_PLACEMENT_3D ( 'NONE', #94, #7, #222 ) ;
#239 = EDGE_CURVE ( 'NONE', #174, #128, #253, .T. ) ;
#240 = FACE_OUTER_BOUND ( 'NONE', #136, .T. ) ;
#241 = DATE_AND_TIME ( #78, #229 ) ;
#242 = APPROVAL_STATUS ( 'not_yet_approved' ) ;
#243 = APPROVAL_ROLE ( '' ) ;
#244 = APPROVAL ( #164, 'NEURÈENÝ' ) ;
#245 = EDGE_CURVE ( 'NONE', #177, #179, #61, .T. ) ;
#246 = APPROVAL_PERSON_ORGANIZATION ( #38, #189, #63 ) ;
#247 = CLOSED_SHELL ( 'NONE', ( #122, #34, #105, #148, #58, #151, #130 ) ) ;
#248 = CARTESIAN_POINT ( 'NONE',  ( 0.000000000000000000, 0.000000000000000000, 315.0000000000000000 ) ) ;
#249 = DIRECTION ( 'NONE',  ( 0.000000000000000000, 0.000000000000000000, 1.000000000000000000 ) ) ;
#250 = CC_DESIGN_DATE_AND_TIME_ASSIGNMENT ( #100, #186, ( #184 ) ) ;
#251 = CARTESIAN_POINT ( 'NONE',  ( 0.000000000000000000, 0.000000000000000000, 315.0000000000000000 ) ) ;
#252 = ORIENTED_EDGE ( 'NONE', *, *, #73, .T. ) ;
#253 = CIRCLE ( 'NONE', #207, 1.250000000000000000 ) ;
#254 = AXIS2_PLACEMENT_3D ( 'NONE', #170, #249, #69 ) ;
#255 = VERTEX_POINT ( 'NONE', #108 ) ;
ENDSEC;
END-ISO-10303-21;
