ISO-10303-21;
HEADER;
FILE_DESCRIPTION (( 'STEP AP203' ),
    '1' );
FILE_NAME ('b4d0.STEP',
    '2023-02-13T08:39:43',
    ( '' ),
    ( '' ),
    'SwSTEP 2.0',
    'SolidWorks 2019',
    '' );
FILE_SCHEMA (( 'CONFIG_CONTROL_DESIGN' ));
ENDSEC;

DATA;
#1 = PERSON_AND_ORGANIZATION ( #187, #10 ) ;
#2 = AXIS2_PLACEMENT_3D ( 'NONE', #199, #240, #217 ) ;
#3 = APPROVAL_PERSON_ORGANIZATION ( #128, #102, #11 ) ;
#4 = ADVANCED_FACE ( 'NONE', ( #227, #233 ), #48, .T. ) ;
#5 = PERSON_AND_ORGANIZATION_ROLE ( 'creator' ) ;
#6 = APPROVAL_DATE_TIME ( #188, #102 ) ;
#7 = ORIENTED_EDGE ( 'NONE', *, *, #51, .T. ) ;
#8 = PERSON_AND_ORGANIZATION_ROLE ( 'creator' ) ;
#9 = ORIENTED_EDGE ( 'NONE', *, *, #19, .T. ) ;
#10 = ORGANIZATION ( 'NEURÈENÝ', 'NEURÈENÝ', '' ) ;
#11 = APPROVAL_ROLE ( '' ) ;
#12 = CARTESIAN_POINT ( 'NONE',  ( -14.00000000000000000, 0.000000000000000000, 0.000000000000000000 ) ) ;
#13 = CARTESIAN_POINT ( 'NONE',  ( 0.000000000000000000, 0.000000000000000000, 1200.000000000000000 ) ) ;
#14 = DIRECTION ( 'NONE',  ( 1.000000000000000000, 0.000000000000000000, 0.000000000000000000 ) ) ;
#15 = CARTESIAN_POINT ( 'NONE',  ( 0.000000000000000000, 0.000000000000000000, 1200.000000000000000 ) ) ;
#16 = CARTESIAN_POINT ( 'NONE',  ( -10.00000000000000000, 0.000000000000000000, 1200.000000000000000 ) ) ;
#17 = CC_DESIGN_PERSON_AND_ORGANIZATION_ASSIGNMENT ( #74, #94, ( #92 ) ) ;
#18 = VECTOR ( 'NONE', #117, 1000.000000000000000 ) ;
#19 = EDGE_CURVE ( 'NONE', #212, #29, #30, .T. ) ;
#20 = CARTESIAN_POINT ( 'NONE',  ( 14.00000000000000000, 1.714505518806294638E-15, 7.000000000000000000 ) ) ;
#21 = APPLICATION_CONTEXT ( 'configuration controlled 3d designs of mechanical parts and assemblies' ) ;
#22 = FACE_OUTER_BOUND ( 'NONE', #75, .T. ) ;
#23 = CIRCLE ( 'NONE', #133, 10.00000000000000000 ) ;
#24 = AXIS2_PLACEMENT_3D ( 'NONE', #15, #82, #254 ) ;
#25 = EDGE_CURVE ( 'NONE', #88, #193, #23, .T. ) ;
#26 = AXIS2_PLACEMENT_3D ( 'NONE', #99, #157, #98 ) ;
#27 = MECHANICAL_CONTEXT ( 'NONE', #58, 'mechanical' ) ;
#28 = CALENDAR_DATE ( 2023, 13, 2 ) ;
#29 = VERTEX_POINT ( 'NONE', #12 ) ;
#30 = LINE ( 'NONE', #78, #139 ) ;
#31 = EDGE_CURVE ( 'NONE', #193, #88, #229, .T. ) ;
#32 = EDGE_LOOP ( 'NONE', ( #151, #113 ) ) ;
#33 = CC_DESIGN_APPROVAL ( #102, ( #92 ) ) ;
#34 = CARTESIAN_POINT ( 'NONE',  ( 14.00000000000000000, 1.714505518806294638E-15, 7.000000000000000000 ) ) ;
#35 = CARTESIAN_POINT ( 'NONE',  ( 10.00000000000000000, 1.224646799147353256E-15, 7.000000000000000000 ) ) ;
#36 = AXIS2_PLACEMENT_3D ( 'NONE', #57, #211, #81 ) ;
#37 = DIRECTION ( 'NONE',  ( -1.000000000000000000, 0.000000000000000000, 0.000000000000000000 ) ) ;
#38 = LOCAL_TIME ( 9, 39, 43.00000000000000000, #56 ) ;
#39 = CARTESIAN_POINT ( 'NONE',  ( 0.000000000000000000, 0.000000000000000000, 7.000000000000000000 ) ) ;
#40 = DIRECTION ( 'NONE',  ( -0.000000000000000000, -0.000000000000000000, -1.000000000000000000 ) ) ;
#41 = AXIS2_PLACEMENT_3D ( 'NONE', #144, #143, #107 ) ;
#42 = ORIENTED_EDGE ( 'NONE', *, *, #175, .T. ) ;
#43 =( NAMED_UNIT ( * ) PLANE_ANGLE_UNIT ( ) SI_UNIT ( $, .RADIAN. ) );
#44 = APPROVAL_ROLE ( '' ) ;
#45 = LOCAL_TIME ( 9, 39, 43.00000000000000000, #125 ) ;
#46 = ORIENTED_EDGE ( 'NONE', *, *, #145, .F. ) ;
#47 = DESIGN_CONTEXT ( 'detailed design', #21, 'design' ) ;
#48 = PLANE ( 'NONE',  #36 ) ;
#49 = AXIS2_PLACEMENT_3D ( 'NONE', #219, #83, #62 ) ;
#50 = DATE_TIME_ROLE ( 'creation_date' ) ;
#51 = EDGE_CURVE ( 'NONE', #132, #73, #172, .T. ) ;
#52 = DIRECTION ( 'NONE',  ( 1.000000000000000000, 0.000000000000000000, 0.000000000000000000 ) ) ;
#53 = PERSON_AND_ORGANIZATION ( #187, #10 ) ;
#54 = ORIENTED_EDGE ( 'NONE', *, *, #55, .F. ) ;
#55 = EDGE_CURVE ( 'NONE', #213, #189, #179, .T. ) ;
#56 = COORDINATED_UNIVERSAL_TIME_OFFSET ( 1, 0, .AHEAD. ) ;
#57 = CARTESIAN_POINT ( 'NONE',  ( 0.000000000000000000, 0.000000000000000000, 7.000000000000000000 ) ) ;
#58 = APPLICATION_CONTEXT ( 'configuration controlled 3d designs of mechanical parts and assemblies' ) ;
#59 = DIRECTION ( 'NONE',  ( 0.000000000000000000, 0.000000000000000000, 1.000000000000000000 ) ) ;
#60 = CIRCLE ( 'NONE', #204, 14.00000000000000000 ) ;
#61 = CC_DESIGN_DATE_AND_TIME_ASSIGNMENT ( #97, #134, ( #92 ) ) ;
#62 = DIRECTION ( 'NONE',  ( 1.000000000000000000, 0.000000000000000000, 0.000000000000000000 ) ) ;
#63 = AXIS2_PLACEMENT_3D ( 'NONE', #237, #65, #253 ) ;
#64 = PRODUCT_DEFINITION ( 'NEZNÁMÝ', '', #231, #47 ) ;
#65 = DIRECTION ( 'NONE',  ( 0.000000000000000000, 0.000000000000000000, 1.000000000000000000 ) ) ;
#66 = DIRECTION ( 'NONE',  ( -0.000000000000000000, -0.000000000000000000, -1.000000000000000000 ) ) ;
#67 = CIRCLE ( 'NONE', #63, 10.00000000000000000 ) ;
#68 = ADVANCED_FACE ( 'NONE', ( #228 ), #195, .T. ) ;
#69 = APPROVAL_STATUS ( 'not_yet_approved' ) ;
#70 = APPROVAL_ROLE ( '' ) ;
#71 = ORIENTED_EDGE ( 'NONE', *, *, #31, .F. ) ;
#72 = PERSON_AND_ORGANIZATION ( #187, #10 ) ;
#73 = VERTEX_POINT ( 'NONE', #216 ) ;
#74 = PERSON_AND_ORGANIZATION ( #187, #10 ) ;
#75 = EDGE_LOOP ( 'NONE', ( #46, #54, #247, #135 ) ) ;
#76 = PRODUCT_RELATED_PRODUCT_CATEGORY ( 'detail', '', ( #238 ) ) ;
#77 = PERSON_AND_ORGANIZATION ( #187, #10 ) ;
#78 = CARTESIAN_POINT ( 'NONE',  ( -14.00000000000000000, 0.000000000000000000, 7.000000000000000000 ) ) ;
#79 = APPROVAL_STATUS ( 'not_yet_approved' ) ;
#80 = CC_DESIGN_APPROVAL ( #86, ( #64 ) ) ;
#81 = DIRECTION ( 'NONE',  ( 1.000000000000000000, 0.000000000000000000, -0.000000000000000000 ) ) ;
#82 = DIRECTION ( 'NONE',  ( -0.000000000000000000, -0.000000000000000000, -1.000000000000000000 ) ) ;
#83 = DIRECTION ( 'NONE',  ( 0.000000000000000000, 0.000000000000000000, 1.000000000000000000 ) ) ;
#84 = AXIS2_PLACEMENT_3D ( 'NONE', #155, #103, #52 ) ;
#85 = CARTESIAN_POINT ( 'NONE',  ( 0.000000000000000000, 0.000000000000000000, 7.000000000000000000 ) ) ;
#86 = APPROVAL ( #69, 'NEURÈENÝ' ) ;
#87 = DIRECTION ( 'NONE',  ( 1.000000000000000000, 0.000000000000000000, -0.000000000000000000 ) ) ;
#88 = VERTEX_POINT ( 'NONE', #35 ) ;
#89 = APPLICATION_PROTOCOL_DEFINITION ( 'international standard', 'config_control_design', 1994, #21 ) ;
#90 = EDGE_CURVE ( 'NONE', #29, #73, #255, .T. ) ;
#91 = CALENDAR_DATE ( 2023, 13, 2 ) ;
#92 = SECURITY_CLASSIFICATION ( '', '', #137 ) ;
#93 = PERSON_AND_ORGANIZATION_ROLE ( 'design_owner' ) ;
#94 = PERSON_AND_ORGANIZATION_ROLE ( 'classification_officer' ) ;
#95 = SHAPE_DEFINITION_REPRESENTATION ( #110, #126 ) ;
#96 = EDGE_LOOP ( 'NONE', ( #118, #7, #230, #203 ) ) ;
#97 = DATE_AND_TIME ( #192, #141 ) ;
#98 = DIRECTION ( 'NONE',  ( 1.000000000000000000, 0.000000000000000000, 0.000000000000000000 ) ) ;
#99 = CARTESIAN_POINT ( 'NONE',  ( 0.000000000000000000, 0.000000000000000000, 7.000000000000000000 ) ) ;
#100 = APPROVAL_DATE_TIME ( #194, #207 ) ;
#101 = DIRECTION ( 'NONE',  ( 0.000000000000000000, 0.000000000000000000, 1.000000000000000000 ) ) ;
#102 = APPROVAL ( #171, 'NEURÈENÝ' ) ;
#103 = DIRECTION ( 'NONE',  ( 0.000000000000000000, 0.000000000000000000, 1.000000000000000000 ) ) ;
#104 = CARTESIAN_POINT ( 'NONE',  ( 0.000000000000000000, 0.000000000000000000, 7.000000000000000000 ) ) ;
#105 = CARTESIAN_POINT ( 'NONE',  ( -14.00000000000000000, 0.000000000000000000, 7.000000000000000000 ) ) ;
#106 = ADVANCED_FACE ( 'NONE', ( #22 ), #140, .T. ) ;
#107 = DIRECTION ( 'NONE',  ( 1.000000000000000000, 0.000000000000000000, 0.000000000000000000 ) ) ;
#108 = DIRECTION ( 'NONE',  ( 0.000000000000000000, 0.000000000000000000, 1.000000000000000000 ) ) ;
#109 = ORIENTED_EDGE ( 'NONE', *, *, #236, .T. ) ;
#110 = PRODUCT_DEFINITION_SHAPE ( 'NONE', 'NONE',  #64 ) ;
#111 =( NAMED_UNIT ( * ) SI_UNIT ( $, .STERADIAN. ) SOLID_ANGLE_UNIT ( ) );
#112 = CARTESIAN_POINT ( 'NONE',  ( 0.000000000000000000, 0.000000000000000000, 0.000000000000000000 ) ) ;
#113 = ORIENTED_EDGE ( 'NONE', *, *, #127, .F. ) ;
#114 = EDGE_LOOP ( 'NONE', ( #71, #173 ) ) ;
#115 = EDGE_CURVE ( 'NONE', #132, #212, #60, .T. ) ;
#116 = ORIENTED_EDGE ( 'NONE', *, *, #25, .T. ) ;
#117 = DIRECTION ( 'NONE',  ( -0.000000000000000000, -0.000000000000000000, -1.000000000000000000 ) ) ;
#118 = ORIENTED_EDGE ( 'NONE', *, *, #115, .F. ) ;
#119 = APPROVAL_PERSON_ORGANIZATION ( #53, #207, #70 ) ;
#120 = DIRECTION ( 'NONE',  ( 1.000000000000000000, 0.000000000000000000, 0.000000000000000000 ) ) ;
#121 = CARTESIAN_POINT ( 'NONE',  ( 10.00000000000000000, 1.224646799147353256E-15, 1200.000000000000000 ) ) ;
#122 = DIRECTION ( 'NONE',  ( 1.000000000000000000, 0.000000000000000000, 0.000000000000000000 ) ) ;
#123 = FACE_OUTER_BOUND ( 'NONE', #244, .T. ) ;
#124 =( LENGTH_UNIT ( ) NAMED_UNIT ( * ) SI_UNIT ( .MILLI., .METRE. ) );
#125 = COORDINATED_UNIVERSAL_TIME_OFFSET ( 1, 0, .AHEAD. ) ;
#126 = ADVANCED_BREP_SHAPE_REPRESENTATION ( 'b4d0', ( #160, #186 ), #241 ) ;
#127 = EDGE_CURVE ( 'NONE', #73, #29, #148, .T. ) ;
#128 = PERSON_AND_ORGANIZATION ( #187, #10 ) ;
#129 = ORIENTED_EDGE ( 'NONE', *, *, #55, .T. ) ;
#130 = CC_DESIGN_PERSON_AND_ORGANIZATION_ASSIGNMENT ( #215, #5, ( #231 ) ) ;
#131 = CALENDAR_DATE ( 2023, 13, 2 ) ;
#132 = VERTEX_POINT ( 'NONE', #20 ) ;
#133 = AXIS2_PLACEMENT_3D ( 'NONE', #196, #190, #14 ) ;
#134 = DATE_TIME_ROLE ( 'classification_date' ) ;
#135 = ORIENTED_EDGE ( 'NONE', *, *, #31, .T. ) ;
#136 = ORIENTED_EDGE ( 'NONE', *, *, #236, .F. ) ;
#137 = SECURITY_CLASSIFICATION_LEVEL ( 'unclassified' ) ;
#138 = DIRECTION ( 'NONE',  ( 1.000000000000000000, 0.000000000000000000, -0.000000000000000000 ) ) ;
#139 = VECTOR ( 'NONE', #246, 1000.000000000000000 ) ;
#140 = CYLINDRICAL_SURFACE ( 'NONE', #184, 10.00000000000000000 ) ;
#141 = LOCAL_TIME ( 9, 39, 43.00000000000000000, #168 ) ;
#142 = CARTESIAN_POINT ( 'NONE',  ( 0.000000000000000000, 0.000000000000000000, 0.000000000000000000 ) ) ;
#143 = DIRECTION ( 'NONE',  ( 0.000000000000000000, 0.000000000000000000, 1.000000000000000000 ) ) ;
#144 = CARTESIAN_POINT ( 'NONE',  ( 0.000000000000000000, 0.000000000000000000, 0.000000000000000000 ) ) ;
#145 = EDGE_CURVE ( 'NONE', #189, #88, #165, .T. ) ;
#146 = FACE_OUTER_BOUND ( 'NONE', #96, .T. ) ;
#147 = DIRECTION ( 'NONE',  ( 0.000000000000000000, 0.000000000000000000, 1.000000000000000000 ) ) ;
#148 = CIRCLE ( 'NONE', #41, 14.00000000000000000 ) ;
#149 = DIRECTION ( 'NONE',  ( 1.000000000000000000, 0.000000000000000000, 0.000000000000000000 ) ) ;
#150 = ADVANCED_FACE ( 'NONE', ( #123 ), #239, .T. ) ;
#151 = ORIENTED_EDGE ( 'NONE', *, *, #90, .F. ) ;
#152 = UNCERTAINTY_MEASURE_WITH_UNIT (LENGTH_MEASURE( 1.000000000000000082E-05 ), #124, 'distance_accuracy_value', 'NONE');
#153 = ORIENTED_EDGE ( 'NONE', *, *, #115, .T. ) ;
#154 = DATE_AND_TIME ( #208, #38 ) ;
#155 = CARTESIAN_POINT ( 'NONE',  ( 0.000000000000000000, 0.000000000000000000, 1200.000000000000000 ) ) ;
#156 = COORDINATED_UNIVERSAL_TIME_OFFSET ( 1, 0, .AHEAD. ) ;
#157 = DIRECTION ( 'NONE',  ( 0.000000000000000000, 0.000000000000000000, 1.000000000000000000 ) ) ;
#158 = CC_DESIGN_SECURITY_CLASSIFICATION ( #92, ( #231 ) ) ;
#159 = ORIENTED_EDGE ( 'NONE', *, *, #90, .T. ) ;
#160 = MANIFOLD_SOLID_BREP ( 'Pøidat vysunutím3', #250 ) ;
#161 = CYLINDRICAL_SURFACE ( 'NONE', #2, 14.00000000000000000 ) ;
#162 = CC_DESIGN_DATE_AND_TIME_ASSIGNMENT ( #154, #50, ( #64 ) ) ;
#163 = LOCAL_TIME ( 9, 39, 43.00000000000000000, #243 ) ;
#164 = DIRECTION ( 'NONE',  ( -0.000000000000000000, -0.000000000000000000, -1.000000000000000000 ) ) ;
#165 = LINE ( 'NONE', #121, #235 ) ;
#166 = AXIS2_PLACEMENT_3D ( 'NONE', #85, #164, #224 ) ;
#167 = DATE_AND_TIME ( #91, #45 ) ;
#168 = COORDINATED_UNIVERSAL_TIME_OFFSET ( 1, 0, .AHEAD. ) ;
#169 = AXIS2_PLACEMENT_3D ( 'NONE', #13, #101, #138 ) ;
#170 = EDGE_LOOP ( 'NONE', ( #176, #226, #9, #159 ) ) ;
#171 = APPROVAL_STATUS ( 'not_yet_approved' ) ;
#172 = LINE ( 'NONE', #34, #18 ) ;
#173 = ORIENTED_EDGE ( 'NONE', *, *, #25, .F. ) ;
#174 = CC_DESIGN_PERSON_AND_ORGANIZATION_ASSIGNMENT ( #77, #8, ( #64 ) ) ;
#175 = EDGE_CURVE ( 'NONE', #212, #132, #205, .T. ) ;
#176 = ORIENTED_EDGE ( 'NONE', *, *, #51, .F. ) ;
#177 = EDGE_LOOP ( 'NONE', ( #129, #109 ) ) ;
#178 = FACE_OUTER_BOUND ( 'NONE', #32, .T. ) ;
#179 = CIRCLE ( 'NONE', #84, 10.00000000000000000 ) ;
#180 = CARTESIAN_POINT ( 'NONE',  ( -10.00000000000000000, 0.000000000000000000, 1200.000000000000000 ) ) ;
#181 = CYLINDRICAL_SURFACE ( 'NONE', #166, 14.00000000000000000 ) ;
#182 = ORIENTED_EDGE ( 'NONE', *, *, #145, .T. ) ;
#183 = ADVANCED_FACE ( 'NONE', ( #178 ), #198, .F. ) ;
#184 = AXIS2_PLACEMENT_3D ( 'NONE', #200, #40, #37 ) ;
#185 = AXIS2_PLACEMENT_3D ( 'NONE', #104, #108, #120 ) ;
#186 = AXIS2_PLACEMENT_3D ( 'NONE', #112, #147, #149 ) ;
#187 = PERSON ( 'NEURÈENÝ', 'NEURÈENÝ', 'NEURÈENÝ', ('NEURÈENÝ'), ('NEURÈENÝ'), ('NEURÈENÝ') ) ;
#188 = DATE_AND_TIME ( #28, #163 ) ;
#189 = VERTEX_POINT ( 'NONE', #202 ) ;
#190 = DIRECTION ( 'NONE',  ( 0.000000000000000000, 0.000000000000000000, 1.000000000000000000 ) ) ;
#191 = ADVANCED_FACE ( 'NONE', ( #248 ), #161, .T. ) ;
#192 = CALENDAR_DATE ( 2023, 13, 2 ) ;
#193 = VERTEX_POINT ( 'NONE', #251 ) ;
#194 = DATE_AND_TIME ( #131, #223 ) ;
#195 = PLANE ( 'NONE',  #169 ) ;
#196 = CARTESIAN_POINT ( 'NONE',  ( 0.000000000000000000, 0.000000000000000000, 7.000000000000000000 ) ) ;
#197 = CC_DESIGN_APPROVAL ( #207, ( #231 ) ) ;
#198 = PLANE ( 'NONE',  #218 ) ;
#199 = CARTESIAN_POINT ( 'NONE',  ( 0.000000000000000000, 0.000000000000000000, 7.000000000000000000 ) ) ;
#200 = CARTESIAN_POINT ( 'NONE',  ( 0.000000000000000000, 0.000000000000000000, 1200.000000000000000 ) ) ;
#201 = APPROVAL_PERSON_ORGANIZATION ( #242, #86, #44 ) ;
#202 = CARTESIAN_POINT ( 'NONE',  ( 10.00000000000000000, 1.224646799147353256E-15, 1200.000000000000000 ) ) ;
#203 = ORIENTED_EDGE ( 'NONE', *, *, #19, .F. ) ;
#204 = AXIS2_PLACEMENT_3D ( 'NONE', #39, #221, #122 ) ;
#205 = CIRCLE ( 'NONE', #185, 14.00000000000000000 ) ;
#206 = APPROVAL_DATE_TIME ( #167, #86 ) ;
#207 = APPROVAL ( #79, 'NEURÈENÝ' ) ;
#208 = CALENDAR_DATE ( 2023, 13, 2 ) ;
#209 = ORIENTED_EDGE ( 'NONE', *, *, #210, .F. ) ;
#210 = EDGE_CURVE ( 'NONE', #213, #193, #249, .T. ) ;
#211 = DIRECTION ( 'NONE',  ( 0.000000000000000000, 0.000000000000000000, 1.000000000000000000 ) ) ;
#212 = VERTEX_POINT ( 'NONE', #105 ) ;
#213 = VERTEX_POINT ( 'NONE', #180 ) ;
#214 = ADVANCED_FACE ( 'NONE', ( #146 ), #181, .T. ) ;
#215 = PERSON_AND_ORGANIZATION ( #187, #10 ) ;
#216 = CARTESIAN_POINT ( 'NONE',  ( 14.00000000000000000, 1.714505518806294638E-15, 0.000000000000000000 ) ) ;
#217 = DIRECTION ( 'NONE',  ( -1.000000000000000000, 0.000000000000000000, 0.000000000000000000 ) ) ;
#218 = AXIS2_PLACEMENT_3D ( 'NONE', #142, #59, #87 ) ;
#219 = CARTESIAN_POINT ( 'NONE',  ( 0.000000000000000000, 0.000000000000000000, 0.000000000000000000 ) ) ;
#220 = CC_DESIGN_PERSON_AND_ORGANIZATION_ASSIGNMENT ( #1, #93, ( #238 ) ) ;
#221 = DIRECTION ( 'NONE',  ( 0.000000000000000000, 0.000000000000000000, 1.000000000000000000 ) ) ;
#222 = CC_DESIGN_PERSON_AND_ORGANIZATION_ASSIGNMENT ( #72, #232, ( #231 ) ) ;
#223 = LOCAL_TIME ( 9, 39, 43.00000000000000000, #156 ) ;
#224 = DIRECTION ( 'NONE',  ( -1.000000000000000000, 0.000000000000000000, 0.000000000000000000 ) ) ;
#225 = APPLICATION_PROTOCOL_DEFINITION ( 'international standard', 'config_control_design', 1994, #58 ) ;
#226 = ORIENTED_EDGE ( 'NONE', *, *, #175, .F. ) ;
#227 = FACE_BOUND ( 'NONE', #114, .T. ) ;
#228 = FACE_OUTER_BOUND ( 'NONE', #177, .T. ) ;
#229 = CIRCLE ( 'NONE', #26, 10.00000000000000000 ) ;
#230 = ORIENTED_EDGE ( 'NONE', *, *, #127, .T. ) ;
#231 = PRODUCT_DEFINITION_FORMATION_WITH_SPECIFIED_SOURCE ( 'LIBOVOLNÝ', '', #238, .NOT_KNOWN. ) ;
#232 = PERSON_AND_ORGANIZATION_ROLE ( 'design_supplier' ) ;
#233 = FACE_OUTER_BOUND ( 'NONE', #245, .T. ) ;
#234 = DIRECTION ( 'NONE',  ( -0.000000000000000000, -0.000000000000000000, -1.000000000000000000 ) ) ;
#235 = VECTOR ( 'NONE', #234, 1000.000000000000000 ) ;
#236 = EDGE_CURVE ( 'NONE', #189, #213, #67, .T. ) ;
#237 = CARTESIAN_POINT ( 'NONE',  ( 0.000000000000000000, 0.000000000000000000, 1200.000000000000000 ) ) ;
#238 = PRODUCT ( 'b4d0', 'b4d0', '', ( #27 ) ) ;
#239 = CYLINDRICAL_SURFACE ( 'NONE', #24, 10.00000000000000000 ) ;
#240 = DIRECTION ( 'NONE',  ( -0.000000000000000000, -0.000000000000000000, -1.000000000000000000 ) ) ;
#241 =( GEOMETRIC_REPRESENTATION_CONTEXT ( 3 ) GLOBAL_UNCERTAINTY_ASSIGNED_CONTEXT ( ( #152 ) ) GLOBAL_UNIT_ASSIGNED_CONTEXT ( ( #124, #43, #111 ) ) REPRESENTATION_CONTEXT ( 'NONE', 'WORKASPACE' ) );
#242 = PERSON_AND_ORGANIZATION ( #187, #10 ) ;
#243 = COORDINATED_UNIVERSAL_TIME_OFFSET ( 1, 0, .AHEAD. ) ;
#244 = EDGE_LOOP ( 'NONE', ( #136, #182, #116, #209 ) ) ;
#245 = EDGE_LOOP ( 'NONE', ( #42, #153 ) ) ;
#246 = DIRECTION ( 'NONE',  ( -0.000000000000000000, -0.000000000000000000, -1.000000000000000000 ) ) ;
#247 = ORIENTED_EDGE ( 'NONE', *, *, #210, .T. ) ;
#248 = FACE_OUTER_BOUND ( 'NONE', #170, .T. ) ;
#249 = LINE ( 'NONE', #16, #252 ) ;
#250 = CLOSED_SHELL ( 'NONE', ( #150, #214, #191, #4, #183, #106, #68 ) ) ;
#251 = CARTESIAN_POINT ( 'NONE',  ( -10.00000000000000000, 0.000000000000000000, 7.000000000000000000 ) ) ;
#252 = VECTOR ( 'NONE', #66, 1000.000000000000000 ) ;
#253 = DIRECTION ( 'NONE',  ( 1.000000000000000000, 0.000000000000000000, 0.000000000000000000 ) ) ;
#254 = DIRECTION ( 'NONE',  ( -1.000000000000000000, 0.000000000000000000, 0.000000000000000000 ) ) ;
#255 = CIRCLE ( 'NONE', #49, 14.00000000000000000 ) ;
ENDSEC;
END-ISO-10303-21;
