ISO-10303-21;
HEADER;
FILE_DESCRIPTION (( 'STEP AP203' ),
    '1' );
FILE_NAME ('acce.STEP',
    '2023-02-13T15:46:31',
    ( '' ),
    ( '' ),
    'SwSTEP 2.0',
    'SolidWorks 2019',
    '' );
FILE_SCHEMA (( 'CONFIG_CONTROL_DESIGN' ));
ENDSEC;

DATA;
#1 = CIRCLE ( 'NONE', #120, 2.750000000000000000 ) ;
#2 = DATE_AND_TIME ( #231, #207 ) ;
#3 = DIRECTION ( 'NONE',  ( 1.000000000000000000, 0.000000000000000000, 0.000000000000000000 ) ) ;
#4 = EDGE_LOOP ( 'NONE', ( #128, #121, #76, #71 ) ) ;
#5 = CARTESIAN_POINT ( 'NONE',  ( 0.000000000000000000, 0.000000000000000000, 5.000000000000000000 ) ) ;
#6 = APPROVAL_PERSON_ORGANIZATION ( #52, #228, #163 ) ;
#7 = DIRECTION ( 'NONE',  ( 0.000000000000000000, 0.000000000000000000, 1.000000000000000000 ) ) ;
#8 = DIRECTION ( 'NONE',  ( 0.000000000000000000, 0.000000000000000000, 1.000000000000000000 ) ) ;
#9 = CC_DESIGN_PERSON_AND_ORGANIZATION_ASSIGNMENT ( #56, #212, ( #155 ) ) ;
#10 = AXIS2_PLACEMENT_3D ( 'NONE', #41, #80, #82 ) ;
#11 = DIRECTION ( 'NONE',  ( -0.000000000000000000, -0.000000000000000000, -1.000000000000000000 ) ) ;
#12 = CIRCLE ( 'NONE', #78, 2.750000000000000000 ) ;
#13 = CIRCLE ( 'NONE', #114, 2.750000000000000000 ) ;
#14 = ADVANCED_FACE ( 'NONE', ( #135 ), #126, .T. ) ;
#15 = ORIENTED_EDGE ( 'NONE', *, *, #34, .F. ) ;
#16 = APPLICATION_PROTOCOL_DEFINITION ( 'international standard', 'config_control_design', 1994, #241 ) ;
#17 = APPROVAL_ROLE ( '' ) ;
#18 = PERSON_AND_ORGANIZATION_ROLE ( 'classification_officer' ) ;
#19 = CIRCLE ( 'NONE', #101, 5.000000000000000000 ) ;
#20 = CARTESIAN_POINT ( 'NONE',  ( 2.750000000000000000, 3.367778697655221012E-16, 630.0000000000000000 ) ) ;
#21 = EDGE_LOOP ( 'NONE', ( #15, #238, #217, #203 ) ) ;
#22 = ORIENTED_EDGE ( 'NONE', *, *, #115, .F. ) ;
#23 = CARTESIAN_POINT ( 'NONE',  ( -2.750000000000000000, 0.000000000000000000, 630.0000000000000000 ) ) ;
#24 = ORIENTED_EDGE ( 'NONE', *, *, #25, .F. ) ;
#25 = EDGE_CURVE ( 'NONE', #44, #106, #19, .T. ) ;
#26 = PLANE ( 'NONE',  #86 ) ;
#27 = PRODUCT_RELATED_PRODUCT_CATEGORY ( 'detail', '', ( #197 ) ) ;
#28 = CYLINDRICAL_SURFACE ( 'NONE', #234, 5.000000000000000000 ) ;
#29 = FACE_OUTER_BOUND ( 'NONE', #98, .T. ) ;
#30 = EDGE_CURVE ( 'NONE', #152, #162, #127, .T. ) ;
#31 = ORIENTED_EDGE ( 'NONE', *, *, #104, .T. ) ;
#32 = CC_DESIGN_DATE_AND_TIME_ASSIGNMENT ( #144, #61, ( #155 ) ) ;
#33 = CARTESIAN_POINT ( 'NONE',  ( 0.000000000000000000, 0.000000000000000000, 0.000000000000000000 ) ) ;
#34 = EDGE_CURVE ( 'NONE', #176, #100, #167, .T. ) ;
#35 = ORIENTED_EDGE ( 'NONE', *, *, #69, .F. ) ;
#36 = DIRECTION ( 'NONE',  ( 1.000000000000000000, 0.000000000000000000, 0.000000000000000000 ) ) ;
#37 = PERSON_AND_ORGANIZATION ( #171, #66 ) ;
#38 = APPROVAL ( #91, 'NEURÈENÝ' ) ;
#39 = APPROVAL_STATUS ( 'not_yet_approved' ) ;
#40 = LOCAL_TIME ( 16, 46, 31.00000000000000000, #48 ) ;
#41 = CARTESIAN_POINT ( 'NONE',  ( 0.000000000000000000, 0.000000000000000000, 5.000000000000000000 ) ) ;
#42 = EDGE_CURVE ( 'NONE', #232, #199, #230, .T. ) ;
#43 = CARTESIAN_POINT ( 'NONE',  ( 0.000000000000000000, 0.000000000000000000, 630.0000000000000000 ) ) ;
#44 = VERTEX_POINT ( 'NONE', #117 ) ;
#45 = DIRECTION ( 'NONE',  ( -0.000000000000000000, -0.000000000000000000, -1.000000000000000000 ) ) ;
#46 = DIRECTION ( 'NONE',  ( 1.000000000000000000, 0.000000000000000000, 0.000000000000000000 ) ) ;
#47 = AXIS2_PLACEMENT_3D ( 'NONE', #140, #211, #189 ) ;
#48 = COORDINATED_UNIVERSAL_TIME_OFFSET ( 1, 0, .AHEAD. ) ;
#49 = CARTESIAN_POINT ( 'NONE',  ( -2.750000000000000000, 0.000000000000000000, 630.0000000000000000 ) ) ;
#50 = APPROVAL_STATUS ( 'not_yet_approved' ) ;
#51 = CARTESIAN_POINT ( 'NONE',  ( 0.000000000000000000, 0.000000000000000000, 0.000000000000000000 ) ) ;
#52 = PERSON_AND_ORGANIZATION ( #171, #66 ) ;
#53 = CC_DESIGN_APPROVAL ( #38, ( #155 ) ) ;
#54 = PERSON_AND_ORGANIZATION_ROLE ( 'design_supplier' ) ;
#55 = VECTOR ( 'NONE', #93, 1000.000000000000000 ) ;
#56 = PERSON_AND_ORGANIZATION ( #171, #66 ) ;
#57 = APPROVAL_PERSON_ORGANIZATION ( #216, #235, #17 ) ;
#58 = CC_DESIGN_PERSON_AND_ORGANIZATION_ASSIGNMENT ( #190, #188, ( #139 ) ) ;
#59 = APPROVAL_DATE_TIME ( #2, #38 ) ;
#60 = EDGE_LOOP ( 'NONE', ( #22, #85 ) ) ;
#61 = DATE_TIME_ROLE ( 'creation_date' ) ;
#62 = CARTESIAN_POINT ( 'NONE',  ( -5.000000000000000000, 0.000000000000000000, 5.000000000000000000 ) ) ;
#63 = CYLINDRICAL_SURFACE ( 'NONE', #74, 2.750000000000000000 ) ;
#64 = DIRECTION ( 'NONE',  ( -0.000000000000000000, -0.000000000000000000, -1.000000000000000000 ) ) ;
#65 = CARTESIAN_POINT ( 'NONE',  ( 0.000000000000000000, 0.000000000000000000, 0.000000000000000000 ) ) ;
#66 = ORGANIZATION ( 'NEURÈENÝ', 'NEURÈENÝ', '' ) ;
#67 = DIRECTION ( 'NONE',  ( -0.000000000000000000, -0.000000000000000000, -1.000000000000000000 ) ) ;
#68 = ORIENTED_EDGE ( 'NONE', *, *, #182, .F. ) ;
#69 = EDGE_CURVE ( 'NONE', #106, #44, #136, .T. ) ;
#70 = APPLICATION_PROTOCOL_DEFINITION ( 'international standard', 'config_control_design', 1994, #138 ) ;
#71 = ORIENTED_EDGE ( 'NONE', *, *, #69, .T. ) ;
#72 = CALENDAR_DATE ( 2023, 13, 2 ) ;
#73 = APPROVAL_DATE_TIME ( #251, #228 ) ;
#74 = AXIS2_PLACEMENT_3D ( 'NONE', #84, #130, #204 ) ;
#75 = DIRECTION ( 'NONE',  ( -0.000000000000000000, -0.000000000000000000, -1.000000000000000000 ) ) ;
#76 = ORIENTED_EDGE ( 'NONE', *, *, #182, .T. ) ;
#77 = CIRCLE ( 'NONE', #220, 2.750000000000000000 ) ;
#78 = AXIS2_PLACEMENT_3D ( 'NONE', #153, #134, #3 ) ;
#79 = DIRECTION ( 'NONE',  ( -0.000000000000000000, -0.000000000000000000, -1.000000000000000000 ) ) ;
#80 = DIRECTION ( 'NONE',  ( 0.000000000000000000, 0.000000000000000000, 1.000000000000000000 ) ) ;
#81 = LOCAL_TIME ( 16, 46, 31.00000000000000000, #161 ) ;
#82 = DIRECTION ( 'NONE',  ( 1.000000000000000000, 0.000000000000000000, -0.000000000000000000 ) ) ;
#83 = CARTESIAN_POINT ( 'NONE',  ( 0.000000000000000000, 0.000000000000000000, 5.000000000000000000 ) ) ;
#84 = CARTESIAN_POINT ( 'NONE',  ( 0.000000000000000000, 0.000000000000000000, 630.0000000000000000 ) ) ;
#85 = ORIENTED_EDGE ( 'NONE', *, *, #165, .F. ) ;
#86 = AXIS2_PLACEMENT_3D ( 'NONE', #65, #8, #116 ) ;
#87 =( NAMED_UNIT ( * ) SI_UNIT ( $, .STERADIAN. ) SOLID_ANGLE_UNIT ( ) );
#88 = EDGE_LOOP ( 'NONE', ( #222, #90 ) ) ;
#89 = VECTOR ( 'NONE', #64, 1000.000000000000000 ) ;
#90 = ORIENTED_EDGE ( 'NONE', *, *, #42, .T. ) ;
#91 = APPROVAL_STATUS ( 'not_yet_approved' ) ;
#92 = DATE_AND_TIME ( #242, #40 ) ;
#93 = DIRECTION ( 'NONE',  ( -0.000000000000000000, -0.000000000000000000, -1.000000000000000000 ) ) ;
#94 = CC_DESIGN_PERSON_AND_ORGANIZATION_ASSIGNMENT ( #37, #18, ( #179 ) ) ;
#95 = ORIENTED_EDGE ( 'NONE', *, *, #42, .F. ) ;
#96 = DIRECTION ( 'NONE',  ( 0.000000000000000000, 0.000000000000000000, 1.000000000000000000 ) ) ;
#97 = DIRECTION ( 'NONE',  ( 1.000000000000000000, 0.000000000000000000, 0.000000000000000000 ) ) ;
#98 = EDGE_LOOP ( 'NONE', ( #95, #31, #248, #68 ) ) ;
#99 = CARTESIAN_POINT ( 'NONE',  ( 0.000000000000000000, 0.000000000000000000, 630.0000000000000000 ) ) ;
#100 = VERTEX_POINT ( 'NONE', #129 ) ;
#101 = AXIS2_PLACEMENT_3D ( 'NONE', #160, #250, #226 ) ;
#102 = CARTESIAN_POINT ( 'NONE',  ( 0.000000000000000000, 0.000000000000000000, 5.000000000000000000 ) ) ;
#103 = AXIS2_PLACEMENT_3D ( 'NONE', #51, #247, #158 ) ;
#104 = EDGE_CURVE ( 'NONE', #232, #44, #175, .T. ) ;
#105 = DESIGN_CONTEXT ( 'detailed design', #241, 'design' ) ;
#106 = VERTEX_POINT ( 'NONE', #218 ) ;
#107 = AXIS2_PLACEMENT_3D ( 'NONE', #5, #67, #201 ) ;
#108 = DIRECTION ( 'NONE',  ( 1.000000000000000000, 0.000000000000000000, -0.000000000000000000 ) ) ;
#109 = CALENDAR_DATE ( 2023, 13, 2 ) ;
#110 = CC_DESIGN_APPROVAL ( #228, ( #179 ) ) ;
#111 = ADVANCED_FACE ( 'NONE', ( #239 ), #26, .F. ) ;
#112 = COORDINATED_UNIVERSAL_TIME_OFFSET ( 1, 0, .AHEAD. ) ;
#113 = ADVANCED_BREP_SHAPE_REPRESENTATION ( 'acce', ( #187, #103 ), #133 ) ;
#114 = AXIS2_PLACEMENT_3D ( 'NONE', #172, #7, #145 ) ;
#115 = EDGE_CURVE ( 'NONE', #162, #100, #13, .T. ) ;
#116 = DIRECTION ( 'NONE',  ( 1.000000000000000000, 0.000000000000000000, -0.000000000000000000 ) ) ;
#117 = CARTESIAN_POINT ( 'NONE',  ( 5.000000000000000000, 6.123233995736766282E-16, 0.000000000000000000 ) ) ;
#118 = ORIENTED_EDGE ( 'NONE', *, *, #30, .F. ) ;
#119 = CARTESIAN_POINT ( 'NONE',  ( -5.000000000000000000, 0.000000000000000000, 5.000000000000000000 ) ) ;
#120 = AXIS2_PLACEMENT_3D ( 'NONE', #43, #181, #36 ) ;
#121 = ORIENTED_EDGE ( 'NONE', *, *, #157, .F. ) ;
#122 = DIRECTION ( 'NONE',  ( 1.000000000000000000, 0.000000000000000000, 0.000000000000000000 ) ) ;
#123 = PLANE ( 'NONE',  #10 ) ;
#124 = AXIS2_PLACEMENT_3D ( 'NONE', #208, #254, #108 ) ;
#125 = PERSON_AND_ORGANIZATION_ROLE ( 'design_owner' ) ;
#126 = PLANE ( 'NONE',  #124 ) ;
#127 = LINE ( 'NONE', #49, #55 ) ;
#128 = ORIENTED_EDGE ( 'NONE', *, *, #104, .F. ) ;
#129 = CARTESIAN_POINT ( 'NONE',  ( 2.750000000000000000, 3.367778697655221012E-16, 5.000000000000000000 ) ) ;
#130 = DIRECTION ( 'NONE',  ( -0.000000000000000000, -0.000000000000000000, -1.000000000000000000 ) ) ;
#131 = FACE_OUTER_BOUND ( 'NONE', #21, .T. ) ;
#132 = FACE_OUTER_BOUND ( 'NONE', #88, .T. ) ;
#133 =( GEOMETRIC_REPRESENTATION_CONTEXT ( 3 ) GLOBAL_UNCERTAINTY_ASSIGNED_CONTEXT ( ( #196 ) ) GLOBAL_UNIT_ASSIGNED_CONTEXT ( ( #209, #178, #87 ) ) REPRESENTATION_CONTEXT ( 'NONE', 'WORKASPACE' ) );
#134 = DIRECTION ( 'NONE',  ( 0.000000000000000000, 0.000000000000000000, 1.000000000000000000 ) ) ;
#135 = FACE_OUTER_BOUND ( 'NONE', #166, .T. ) ;
#136 = CIRCLE ( 'NONE', #164, 5.000000000000000000 ) ;
#137 = EDGE_LOOP ( 'NONE', ( #240, #156, #246, #118 ) ) ;
#138 = APPLICATION_CONTEXT ( 'configuration controlled 3d designs of mechanical parts and assemblies' ) ;
#139 = PRODUCT_DEFINITION_FORMATION_WITH_SPECIFIED_SOURCE ( 'LIBOVOLNÝ', '', #197, .NOT_KNOWN. ) ;
#140 = CARTESIAN_POINT ( 'NONE',  ( 0.000000000000000000, 0.000000000000000000, 5.000000000000000000 ) ) ;
#141 = CC_DESIGN_DATE_AND_TIME_ASSIGNMENT ( #229, #186, ( #179 ) ) ;
#142 = CC_DESIGN_SECURITY_CLASSIFICATION ( #179, ( #139 ) ) ;
#143 = CIRCLE ( 'NONE', #170, 5.000000000000000000 ) ;
#144 = DATE_AND_TIME ( #210, #227 ) ;
#145 = DIRECTION ( 'NONE',  ( 1.000000000000000000, 0.000000000000000000, 0.000000000000000000 ) ) ;
#146 = VECTOR ( 'NONE', #75, 1000.000000000000000 ) ;
#147 = LINE ( 'NONE', #119, #89 ) ;
#148 = ADVANCED_FACE ( 'NONE', ( #192, #132 ), #123, .T. ) ;
#149 = CYLINDRICAL_SURFACE ( 'NONE', #107, 5.000000000000000000 ) ;
#150 = ORIENTED_EDGE ( 'NONE', *, *, #214, .T. ) ;
#151 = DIRECTION ( 'NONE',  ( 0.000000000000000000, 0.000000000000000000, 1.000000000000000000 ) ) ;
#152 = VERTEX_POINT ( 'NONE', #23 ) ;
#153 = CARTESIAN_POINT ( 'NONE',  ( 0.000000000000000000, 0.000000000000000000, 630.0000000000000000 ) ) ;
#154 = APPROVAL_PERSON_ORGANIZATION ( #245, #38, #159 ) ;
#155 = PRODUCT_DEFINITION ( 'NEZNÁMÝ', '', #139, #105 ) ;
#156 = ORIENTED_EDGE ( 'NONE', *, *, #34, .T. ) ;
#157 = EDGE_CURVE ( 'NONE', #199, #232, #143, .T. ) ;
#158 = DIRECTION ( 'NONE',  ( 1.000000000000000000, 0.000000000000000000, 0.000000000000000000 ) ) ;
#159 = APPROVAL_ROLE ( '' ) ;
#160 = CARTESIAN_POINT ( 'NONE',  ( 0.000000000000000000, 0.000000000000000000, 0.000000000000000000 ) ) ;
#161 = COORDINATED_UNIVERSAL_TIME_OFFSET ( 1, 0, .AHEAD. ) ;
#162 = VERTEX_POINT ( 'NONE', #224 ) ;
#163 = APPROVAL_ROLE ( '' ) ;
#164 = AXIS2_PLACEMENT_3D ( 'NONE', #33, #151, #97 ) ;
#165 = EDGE_CURVE ( 'NONE', #100, #162, #77, .T. ) ;
#166 = EDGE_LOOP ( 'NONE', ( #180, #150 ) ) ;
#167 = LINE ( 'NONE', #20, #146 ) ;
#168 = ADVANCED_FACE ( 'NONE', ( #169 ), #149, .T. ) ;
#169 = FACE_OUTER_BOUND ( 'NONE', #4, .T. ) ;
#170 = AXIS2_PLACEMENT_3D ( 'NONE', #83, #243, #46 ) ;
#171 = PERSON ( 'NEURÈENÝ', 'NEURÈENÝ', 'NEURÈENÝ', ('NEURÈENÝ'), ('NEURÈENÝ'), ('NEURÈENÝ') ) ;
#172 = CARTESIAN_POINT ( 'NONE',  ( 0.000000000000000000, 0.000000000000000000, 5.000000000000000000 ) ) ;
#173 = EDGE_LOOP ( 'NONE', ( #35, #24 ) ) ;
#174 = CARTESIAN_POINT ( 'NONE',  ( 0.000000000000000000, 0.000000000000000000, 5.000000000000000000 ) ) ;
#175 = LINE ( 'NONE', #194, #205 ) ;
#176 = VERTEX_POINT ( 'NONE', #198 ) ;
#177 = CC_DESIGN_PERSON_AND_ORGANIZATION_ASSIGNMENT ( #185, #125, ( #197 ) ) ;
#178 =( NAMED_UNIT ( * ) PLANE_ANGLE_UNIT ( ) SI_UNIT ( $, .RADIAN. ) );
#179 = SECURITY_CLASSIFICATION ( '', '', #213 ) ;
#180 = ORIENTED_EDGE ( 'NONE', *, *, #244, .T. ) ;
#181 = DIRECTION ( 'NONE',  ( 0.000000000000000000, 0.000000000000000000, 1.000000000000000000 ) ) ;
#182 = EDGE_CURVE ( 'NONE', #199, #106, #147, .T. ) ;
#183 = ADVANCED_FACE ( 'NONE', ( #131 ), #221, .T. ) ;
#184 = CLOSED_SHELL ( 'NONE', ( #202, #200, #168, #148, #111, #183, #14 ) ) ;
#185 = PERSON_AND_ORGANIZATION ( #171, #66 ) ;
#186 = DATE_TIME_ROLE ( 'classification_date' ) ;
#187 = MANIFOLD_SOLID_BREP ( 'Pøidat vysunutím3', #184 ) ;
#188 = PERSON_AND_ORGANIZATION_ROLE ( 'creator' ) ;
#189 = DIRECTION ( 'NONE',  ( 1.000000000000000000, 0.000000000000000000, 0.000000000000000000 ) ) ;
#190 = PERSON_AND_ORGANIZATION ( #171, #66 ) ;
#191 = AXIS2_PLACEMENT_3D ( 'NONE', #99, #45, #237 ) ;
#192 = FACE_BOUND ( 'NONE', #60, .T. ) ;
#193 = PRODUCT_DEFINITION_SHAPE ( 'NONE', 'NONE',  #155 ) ;
#194 = CARTESIAN_POINT ( 'NONE',  ( 5.000000000000000000, 6.123233995736766282E-16, 5.000000000000000000 ) ) ;
#195 = CC_DESIGN_APPROVAL ( #235, ( #139 ) ) ;
#196 = UNCERTAINTY_MEASURE_WITH_UNIT (LENGTH_MEASURE( 1.000000000000000082E-05 ), #209, 'distance_accuracy_value', 'NONE');
#197 = PRODUCT ( 'acce', 'acce', '', ( #206 ) ) ;
#198 = CARTESIAN_POINT ( 'NONE',  ( 2.750000000000000000, 3.367778697655221012E-16, 630.0000000000000000 ) ) ;
#199 = VERTEX_POINT ( 'NONE', #62 ) ;
#200 = ADVANCED_FACE ( 'NONE', ( #29 ), #28, .T. ) ;
#201 = DIRECTION ( 'NONE',  ( -1.000000000000000000, 0.000000000000000000, 0.000000000000000000 ) ) ;
#202 = ADVANCED_FACE ( 'NONE', ( #225 ), #63, .T. ) ;
#203 = ORIENTED_EDGE ( 'NONE', *, *, #115, .T. ) ;
#204 = DIRECTION ( 'NONE',  ( -1.000000000000000000, 0.000000000000000000, 0.000000000000000000 ) ) ;
#205 = VECTOR ( 'NONE', #79, 1000.000000000000000 ) ;
#206 = MECHANICAL_CONTEXT ( 'NONE', #138, 'mechanical' ) ;
#207 = LOCAL_TIME ( 16, 46, 31.00000000000000000, #252 ) ;
#208 = CARTESIAN_POINT ( 'NONE',  ( 0.000000000000000000, 0.000000000000000000, 630.0000000000000000 ) ) ;
#209 =( LENGTH_UNIT ( ) NAMED_UNIT ( * ) SI_UNIT ( .MILLI., .METRE. ) );
#210 = CALENDAR_DATE ( 2023, 13, 2 ) ;
#211 = DIRECTION ( 'NONE',  ( 0.000000000000000000, 0.000000000000000000, 1.000000000000000000 ) ) ;
#212 = PERSON_AND_ORGANIZATION_ROLE ( 'creator' ) ;
#213 = SECURITY_CLASSIFICATION_LEVEL ( 'unclassified' ) ;
#214 = EDGE_CURVE ( 'NONE', #176, #152, #12, .T. ) ;
#215 = APPROVAL_DATE_TIME ( #92, #235 ) ;
#216 = PERSON_AND_ORGANIZATION ( #171, #66 ) ;
#217 = ORIENTED_EDGE ( 'NONE', *, *, #30, .T. ) ;
#218 = CARTESIAN_POINT ( 'NONE',  ( -5.000000000000000000, 0.000000000000000000, 0.000000000000000000 ) ) ;
#219 = CARTESIAN_POINT ( 'NONE',  ( 5.000000000000000000, 6.123233995736766282E-16, 5.000000000000000000 ) ) ;
#220 = AXIS2_PLACEMENT_3D ( 'NONE', #102, #96, #122 ) ;
#221 = CYLINDRICAL_SURFACE ( 'NONE', #191, 2.750000000000000000 ) ;
#222 = ORIENTED_EDGE ( 'NONE', *, *, #157, .T. ) ;
#223 = CC_DESIGN_PERSON_AND_ORGANIZATION_ASSIGNMENT ( #255, #54, ( #139 ) ) ;
#224 = CARTESIAN_POINT ( 'NONE',  ( -2.750000000000000000, 0.000000000000000000, 5.000000000000000000 ) ) ;
#225 = FACE_OUTER_BOUND ( 'NONE', #137, .T. ) ;
#226 = DIRECTION ( 'NONE',  ( 1.000000000000000000, 0.000000000000000000, 0.000000000000000000 ) ) ;
#227 = LOCAL_TIME ( 16, 46, 31.00000000000000000, #112 ) ;
#228 = APPROVAL ( #39, 'NEURÈENÝ' ) ;
#229 = DATE_AND_TIME ( #72, #253 ) ;
#230 = CIRCLE ( 'NONE', #47, 5.000000000000000000 ) ;
#231 = CALENDAR_DATE ( 2023, 13, 2 ) ;
#232 = VERTEX_POINT ( 'NONE', #219 ) ;
#233 = SHAPE_DEFINITION_REPRESENTATION ( #193, #113 ) ;
#234 = AXIS2_PLACEMENT_3D ( 'NONE', #174, #11, #236 ) ;
#235 = APPROVAL ( #50, 'NEURÈENÝ' ) ;
#236 = DIRECTION ( 'NONE',  ( -1.000000000000000000, 0.000000000000000000, 0.000000000000000000 ) ) ;
#237 = DIRECTION ( 'NONE',  ( -1.000000000000000000, 0.000000000000000000, 0.000000000000000000 ) ) ;
#238 = ORIENTED_EDGE ( 'NONE', *, *, #244, .F. ) ;
#239 = FACE_OUTER_BOUND ( 'NONE', #173, .T. ) ;
#240 = ORIENTED_EDGE ( 'NONE', *, *, #214, .F. ) ;
#241 = APPLICATION_CONTEXT ( 'configuration controlled 3d designs of mechanical parts and assemblies' ) ;
#242 = CALENDAR_DATE ( 2023, 13, 2 ) ;
#243 = DIRECTION ( 'NONE',  ( 0.000000000000000000, 0.000000000000000000, 1.000000000000000000 ) ) ;
#244 = EDGE_CURVE ( 'NONE', #152, #176, #1, .T. ) ;
#245 = PERSON_AND_ORGANIZATION ( #171, #66 ) ;
#246 = ORIENTED_EDGE ( 'NONE', *, *, #165, .T. ) ;
#247 = DIRECTION ( 'NONE',  ( 0.000000000000000000, 0.000000000000000000, 1.000000000000000000 ) ) ;
#248 = ORIENTED_EDGE ( 'NONE', *, *, #25, .T. ) ;
#249 = COORDINATED_UNIVERSAL_TIME_OFFSET ( 1, 0, .AHEAD. ) ;
#250 = DIRECTION ( 'NONE',  ( 0.000000000000000000, 0.000000000000000000, 1.000000000000000000 ) ) ;
#251 = DATE_AND_TIME ( #109, #81 ) ;
#252 = COORDINATED_UNIVERSAL_TIME_OFFSET ( 1, 0, .AHEAD. ) ;
#253 = LOCAL_TIME ( 16, 46, 31.00000000000000000, #249 ) ;
#254 = DIRECTION ( 'NONE',  ( 0.000000000000000000, 0.000000000000000000, 1.000000000000000000 ) ) ;
#255 = PERSON_AND_ORGANIZATION ( #171, #66 ) ;
ENDSEC;
END-ISO-10303-21;
