ISO-10303-21;
HEADER;
FILE_DESCRIPTION (( 'STEP AP203' ),
    '1' );
FILE_NAME ('d305.STEP',
    '2023-02-13T13:49:00',
    ( '' ),
    ( '' ),
    'SwSTEP 2.0',
    'SolidWorks 2019',
    '' );
FILE_SCHEMA (( 'CONFIG_CONTROL_DESIGN' ));
ENDSEC;

DATA;
#1 = PERSON_AND_ORGANIZATION ( #173, #169 ) ;
#2 = EDGE_CURVE ( 'NONE', #240, #74, #188, .T. ) ;
#3 = DIRECTION ( 'NONE',  ( 0.000000000000000000, 0.000000000000000000, 1.000000000000000000 ) ) ;
#4 = ORIENTED_EDGE ( 'NONE', *, *, #150, .F. ) ;
#5 = ORIENTED_EDGE ( 'NONE', *, *, #203, .T. ) ;
#6 = CIRCLE ( 'NONE', #21, 7.000000000000000000 ) ;
#7 = DIRECTION ( 'NONE',  ( 0.000000000000000000, 0.000000000000000000, 1.000000000000000000 ) ) ;
#8 = EDGE_CURVE ( 'NONE', #240, #111, #56, .T. ) ;
#9 = CC_DESIGN_APPROVAL ( #12, ( #133 ) ) ;
#10 = APPROVAL_STATUS ( 'not_yet_approved' ) ;
#11 = APPROVAL_ROLE ( '' ) ;
#12 = APPROVAL ( #98, 'NEURÈENÝ' ) ;
#13 = AXIS2_PLACEMENT_3D ( 'NONE', #88, #106, #236 ) ;
#14 = PRODUCT_DEFINITION_SHAPE ( 'NONE', 'NONE',  #133 ) ;
#15 = UNCERTAINTY_MEASURE_WITH_UNIT (LENGTH_MEASURE( 1.000000000000000082E-05 ), #212, 'distance_accuracy_value', 'NONE');
#16 = LINE ( 'NONE', #208, #193 ) ;
#17 = CARTESIAN_POINT ( 'NONE',  ( -4.250000000000000000, 0.000000000000000000, 6.500000000000000000 ) ) ;
#18 = ORIENTED_EDGE ( 'NONE', *, *, #150, .T. ) ;
#19 = ORIENTED_EDGE ( 'NONE', *, *, #122, .F. ) ;
#20 = APPLICATION_PROTOCOL_DEFINITION ( 'international standard', 'config_control_design', 1994, #165 ) ;
#21 = AXIS2_PLACEMENT_3D ( 'NONE', #80, #23, #78 ) ;
#22 = ORIENTED_EDGE ( 'NONE', *, *, #2, .T. ) ;
#23 = DIRECTION ( 'NONE',  ( 0.000000000000000000, 0.000000000000000000, 1.000000000000000000 ) ) ;
#24 = CARTESIAN_POINT ( 'NONE',  ( 0.000000000000000000, 0.000000000000000000, 6.500000000000000000 ) ) ;
#25 = ADVANCED_FACE ( 'NONE', ( #63 ), #82, .T. ) ;
#26 = PERSON_AND_ORGANIZATION ( #173, #169 ) ;
#27 = PERSON_AND_ORGANIZATION ( #173, #169 ) ;
#28 = CC_DESIGN_PERSON_AND_ORGANIZATION_ASSIGNMENT ( #253, #51, ( #47 ) ) ;
#29 = DIRECTION ( 'NONE',  ( 0.000000000000000000, 0.000000000000000000, 1.000000000000000000 ) ) ;
#30 = ADVANCED_FACE ( 'NONE', ( #131 ), #164, .T. ) ;
#31 = AXIS2_PLACEMENT_3D ( 'NONE', #24, #83, #202 ) ;
#32 = CARTESIAN_POINT ( 'NONE',  ( 7.000000000000000000, 8.572527594031471218E-16, 6.500000000000000000 ) ) ;
#33 = EDGE_CURVE ( 'NONE', #174, #95, #103, .T. ) ;
#34 = DIRECTION ( 'NONE',  ( 1.000000000000000000, 0.000000000000000000, -0.000000000000000000 ) ) ;
#35 = DIRECTION ( 'NONE',  ( 1.000000000000000000, 0.000000000000000000, 0.000000000000000000 ) ) ;
#36 = EDGE_CURVE ( 'NONE', #74, #39, #163, .T. ) ;
#37 = CC_DESIGN_PERSON_AND_ORGANIZATION_ASSIGNMENT ( #26, #145, ( #221 ) ) ;
#38 = DIRECTION ( 'NONE',  ( -0.000000000000000000, -0.000000000000000000, -1.000000000000000000 ) ) ;
#39 = VERTEX_POINT ( 'NONE', #17 ) ;
#40 = ORIENTED_EDGE ( 'NONE', *, *, #124, .F. ) ;
#41 = ADVANCED_FACE ( 'NONE', ( #136, #89 ), #210, .T. ) ;
#42 = CARTESIAN_POINT ( 'NONE',  ( 0.000000000000000000, 0.000000000000000000, 100.0000000000000000 ) ) ;
#43 = CARTESIAN_POINT ( 'NONE',  ( 7.000000000000000000, 8.572527594031471218E-16, 6.500000000000000000 ) ) ;
#44 = LOCAL_TIME ( 14, 49, 0.000000000000000000, #62 ) ;
#45 = CALENDAR_DATE ( 2023, 13, 2 ) ;
#46 = CALENDAR_DATE ( 2023, 13, 2 ) ;
#47 = PRODUCT_DEFINITION_FORMATION_WITH_SPECIFIED_SOURCE ( 'LIBOVOLNÝ', '', #221, .NOT_KNOWN. ) ;
#48 = DIRECTION ( 'NONE',  ( 1.000000000000000000, 0.000000000000000000, -0.000000000000000000 ) ) ;
#49 = CARTESIAN_POINT ( 'NONE',  ( 0.000000000000000000, 0.000000000000000000, 100.0000000000000000 ) ) ;
#50 = DIRECTION ( 'NONE',  ( 1.000000000000000000, 0.000000000000000000, 0.000000000000000000 ) ) ;
#51 = PERSON_AND_ORGANIZATION_ROLE ( 'design_supplier' ) ;
#52 = LOCAL_TIME ( 14, 49, 0.000000000000000000, #104 ) ;
#53 = EDGE_LOOP ( 'NONE', ( #155, #179 ) ) ;
#54 = AXIS2_PLACEMENT_3D ( 'NONE', #254, #132, #108 ) ;
#55 = CARTESIAN_POINT ( 'NONE',  ( 4.250000000000000000, 5.204748896376250699E-16, 100.0000000000000000 ) ) ;
#56 = CIRCLE ( 'NONE', #199, 4.250000000000000000 ) ;
#57 = DIRECTION ( 'NONE',  ( 1.000000000000000000, 0.000000000000000000, 0.000000000000000000 ) ) ;
#58 = CYLINDRICAL_SURFACE ( 'NONE', #102, 4.250000000000000000 ) ;
#59 = MECHANICAL_CONTEXT ( 'NONE', #165, 'mechanical' ) ;
#60 = DATE_TIME_ROLE ( 'creation_date' ) ;
#61 = CC_DESIGN_DATE_AND_TIME_ASSIGNMENT ( #148, #232, ( #171 ) ) ;
#62 = COORDINATED_UNIVERSAL_TIME_OFFSET ( 1, 0, .AHEAD. ) ;
#63 = FACE_OUTER_BOUND ( 'NONE', #135, .T. ) ;
#64 = AXIS2_PLACEMENT_3D ( 'NONE', #140, #7, #175 ) ;
#65 = CALENDAR_DATE ( 2023, 13, 2 ) ;
#66 = CARTESIAN_POINT ( 'NONE',  ( -4.250000000000000000, 0.000000000000000000, 100.0000000000000000 ) ) ;
#67 = CLOSED_SHELL ( 'NONE', ( #25, #94, #30, #41, #118, #189, #101 ) ) ;
#68 = ORIENTED_EDGE ( 'NONE', *, *, #168, .F. ) ;
#69 = COORDINATED_UNIVERSAL_TIME_OFFSET ( 1, 0, .AHEAD. ) ;
#70 = EDGE_LOOP ( 'NONE', ( #152, #242 ) ) ;
#71 = CARTESIAN_POINT ( 'NONE',  ( 0.000000000000000000, 0.000000000000000000, 6.500000000000000000 ) ) ;
#72 = DIRECTION ( 'NONE',  ( 1.000000000000000000, 0.000000000000000000, 0.000000000000000000 ) ) ;
#73 = DIRECTION ( 'NONE',  ( 0.000000000000000000, 0.000000000000000000, 1.000000000000000000 ) ) ;
#74 = VERTEX_POINT ( 'NONE', #198 ) ;
#75 = CARTESIAN_POINT ( 'NONE',  ( 4.250000000000000000, 5.204748896376250699E-16, 100.0000000000000000 ) ) ;
#76 = EDGE_CURVE ( 'NONE', #95, #109, #211, .T. ) ;
#77 = AXIS2_PLACEMENT_3D ( 'NONE', #172, #235, #35 ) ;
#78 = DIRECTION ( 'NONE',  ( 1.000000000000000000, 0.000000000000000000, 0.000000000000000000 ) ) ;
#79 = ORIENTED_EDGE ( 'NONE', *, *, #226, .F. ) ;
#80 = CARTESIAN_POINT ( 'NONE',  ( 0.000000000000000000, 0.000000000000000000, 6.500000000000000000 ) ) ;
#81 = CIRCLE ( 'NONE', #54, 7.000000000000000000 ) ;
#82 = CYLINDRICAL_SURFACE ( 'NONE', #142, 4.250000000000000000 ) ;
#83 = DIRECTION ( 'NONE',  ( -0.000000000000000000, -0.000000000000000000, -1.000000000000000000 ) ) ;
#84 = APPROVAL ( #204, 'NEURÈENÝ' ) ;
#85 = CALENDAR_DATE ( 2023, 13, 2 ) ;
#86 = PLANE ( 'NONE',  #119 ) ;
#87 = DIRECTION ( 'NONE',  ( -0.000000000000000000, -0.000000000000000000, -1.000000000000000000 ) ) ;
#88 = CARTESIAN_POINT ( 'NONE',  ( 0.000000000000000000, 0.000000000000000000, 0.000000000000000000 ) ) ;
#89 = FACE_OUTER_BOUND ( 'NONE', #137, .T. ) ;
#90 = CARTESIAN_POINT ( 'NONE',  ( 0.000000000000000000, 0.000000000000000000, 0.000000000000000000 ) ) ;
#91 = ORIENTED_EDGE ( 'NONE', *, *, #76, .T. ) ;
#92 = ORIENTED_EDGE ( 'NONE', *, *, #124, .T. ) ;
#93 = ORIENTED_EDGE ( 'NONE', *, *, #226, .T. ) ;
#94 = ADVANCED_FACE ( 'NONE', ( #238 ), #156, .T. ) ;
#95 = VERTEX_POINT ( 'NONE', #227 ) ;
#96 = DIRECTION ( 'NONE',  ( -1.000000000000000000, 0.000000000000000000, 0.000000000000000000 ) ) ;
#97 = AXIS2_PLACEMENT_3D ( 'NONE', #200, #245, #72 ) ;
#98 = APPROVAL_STATUS ( 'not_yet_approved' ) ;
#99 = FACE_OUTER_BOUND ( 'NONE', #70, .T. ) ;
#100 = PERSON_AND_ORGANIZATION_ROLE ( 'creator' ) ;
#101 = ADVANCED_FACE ( 'NONE', ( #99 ), #86, .T. ) ;
#102 = AXIS2_PLACEMENT_3D ( 'NONE', #115, #190, #96 ) ;
#103 = LINE ( 'NONE', #32, #248 ) ;
#104 = COORDINATED_UNIVERSAL_TIME_OFFSET ( 1, 0, .AHEAD. ) ;
#105 = PLANE ( 'NONE',  #13 ) ;
#106 = DIRECTION ( 'NONE',  ( 0.000000000000000000, 0.000000000000000000, 1.000000000000000000 ) ) ;
#107 = AXIS2_PLACEMENT_3D ( 'NONE', #90, #3, #113 ) ;
#108 = DIRECTION ( 'NONE',  ( 1.000000000000000000, 0.000000000000000000, 0.000000000000000000 ) ) ;
#109 = VERTEX_POINT ( 'NONE', #154 ) ;
#110 = LOCAL_TIME ( 14, 49, 0.000000000000000000, #195 ) ;
#111 = VERTEX_POINT ( 'NONE', #66 ) ;
#112 = ORIENTED_EDGE ( 'NONE', *, *, #2, .F. ) ;
#113 = DIRECTION ( 'NONE',  ( 1.000000000000000000, 0.000000000000000000, 0.000000000000000000 ) ) ;
#114 = EDGE_LOOP ( 'NONE', ( #187, #40, #18, #93 ) ) ;
#115 = CARTESIAN_POINT ( 'NONE',  ( 0.000000000000000000, 0.000000000000000000, 100.0000000000000000 ) ) ;
#116 = DIRECTION ( 'NONE',  ( 0.000000000000000000, 0.000000000000000000, 1.000000000000000000 ) ) ;
#117 = APPROVAL ( #10, 'NEURÈENÝ' ) ;
#118 = ADVANCED_FACE ( 'NONE', ( #239 ), #105, .F. ) ;
#119 = AXIS2_PLACEMENT_3D ( 'NONE', #170, #73, #34 ) ;
#120 = APPROVAL_ROLE ( '' ) ;
#121 = DATE_AND_TIME ( #85, #110 ) ;
#122 = EDGE_CURVE ( 'NONE', #111, #240, #225, .T. ) ;
#123 = VECTOR ( 'NONE', #38, 1000.000000000000000 ) ;
#124 = EDGE_CURVE ( 'NONE', #214, #174, #81, .T. ) ;
#125 = DIRECTION ( 'NONE',  ( -1.000000000000000000, 0.000000000000000000, 0.000000000000000000 ) ) ;
#126 = PERSON_AND_ORGANIZATION_ROLE ( 'classification_officer' ) ;
#127 = APPLICATION_CONTEXT ( 'configuration controlled 3d designs of mechanical parts and assemblies' ) ;
#128 = APPROVAL_PERSON_ORGANIZATION ( #166, #12, #120 ) ;
#129 = DIRECTION ( 'NONE',  ( 1.000000000000000000, 0.000000000000000000, 0.000000000000000000 ) ) ;
#130 = PERSON_AND_ORGANIZATION ( #173, #169 ) ;
#131 = FACE_OUTER_BOUND ( 'NONE', #114, .T. ) ;
#132 = DIRECTION ( 'NONE',  ( 0.000000000000000000, 0.000000000000000000, 1.000000000000000000 ) ) ;
#133 = PRODUCT_DEFINITION ( 'NEZNÁMÝ', '', #47, #151 ) ;
#134 = APPROVAL_PERSON_ORGANIZATION ( #247, #117, #11 ) ;
#135 = EDGE_LOOP ( 'NONE', ( #181, #22, #244, #209 ) ) ;
#136 = FACE_BOUND ( 'NONE', #53, .T. ) ;
#137 = EDGE_LOOP ( 'NONE', ( #92, #161 ) ) ;
#138 = FACE_OUTER_BOUND ( 'NONE', #191, .T. ) ;
#139 = CC_DESIGN_APPROVAL ( #84, ( #171 ) ) ;
#140 = CARTESIAN_POINT ( 'NONE',  ( 0.000000000000000000, 0.000000000000000000, 6.500000000000000000 ) ) ;
#141 = APPROVAL_DATE_TIME ( #218, #84 ) ;
#142 = AXIS2_PLACEMENT_3D ( 'NONE', #49, #149, #125 ) ;
#143 = ORIENTED_EDGE ( 'NONE', *, *, #33, .T. ) ;
#144 = AXIS2_PLACEMENT_3D ( 'NONE', #237, #206, #50 ) ;
#145 = PERSON_AND_ORGANIZATION_ROLE ( 'design_owner' ) ;
#146 = PERSON_AND_ORGANIZATION_ROLE ( 'creator' ) ;
#147 = AXIS2_PLACEMENT_3D ( 'NONE', #71, #29, #48 ) ;
#148 = DATE_AND_TIME ( #230, #213 ) ;
#149 = DIRECTION ( 'NONE',  ( -0.000000000000000000, -0.000000000000000000, -1.000000000000000000 ) ) ;
#150 = EDGE_CURVE ( 'NONE', #214, #109, #16, .T. ) ;
#151 = DESIGN_CONTEXT ( 'detailed design', #127, 'design' ) ;
#152 = ORIENTED_EDGE ( 'NONE', *, *, #122, .T. ) ;
#153 = EDGE_CURVE ( 'NONE', #111, #39, #159, .T. ) ;
#154 = CARTESIAN_POINT ( 'NONE',  ( -7.000000000000000000, 0.000000000000000000, 0.000000000000000000 ) ) ;
#155 = ORIENTED_EDGE ( 'NONE', *, *, #203, .F. ) ;
#156 = CYLINDRICAL_SURFACE ( 'NONE', #194, 7.000000000000000000 ) ;
#157 = SHAPE_DEFINITION_REPRESENTATION ( #14, #234 ) ;
#158 = EDGE_LOOP ( 'NONE', ( #79, #246 ) ) ;
#159 = LINE ( 'NONE', #178, #123 ) ;
#160 = PRODUCT_RELATED_PRODUCT_CATEGORY ( 'detail', '', ( #221 ) ) ;
#161 = ORIENTED_EDGE ( 'NONE', *, *, #168, .T. ) ;
#162 = DIRECTION ( 'NONE',  ( 0.000000000000000000, 0.000000000000000000, 1.000000000000000000 ) ) ;
#163 = CIRCLE ( 'NONE', #77, 4.250000000000000000 ) ;
#164 = CYLINDRICAL_SURFACE ( 'NONE', #31, 7.000000000000000000 ) ;
#165 = APPLICATION_CONTEXT ( 'configuration controlled 3d designs of mechanical parts and assemblies' ) ;
#166 = PERSON_AND_ORGANIZATION ( #173, #169 ) ;
#167 = COORDINATED_UNIVERSAL_TIME_OFFSET ( 1, 0, .AHEAD. ) ;
#168 = EDGE_CURVE ( 'NONE', #174, #214, #6, .T. ) ;
#169 = ORGANIZATION ( 'NEURÈENÝ', 'NEURÈENÝ', '' ) ;
#170 = CARTESIAN_POINT ( 'NONE',  ( 0.000000000000000000, 0.000000000000000000, 100.0000000000000000 ) ) ;
#171 = SECURITY_CLASSIFICATION ( '', '', #207 ) ;
#172 = CARTESIAN_POINT ( 'NONE',  ( 0.000000000000000000, 0.000000000000000000, 6.500000000000000000 ) ) ;
#173 = PERSON ( 'NEURÈENÝ', 'NEURÈENÝ', 'NEURÈENÝ', ('NEURÈENÝ'), ('NEURÈENÝ'), ('NEURÈENÝ') ) ;
#174 = VERTEX_POINT ( 'NONE', #43 ) ;
#175 = DIRECTION ( 'NONE',  ( 1.000000000000000000, 0.000000000000000000, 0.000000000000000000 ) ) ;
#176 = EDGE_LOOP ( 'NONE', ( #68, #143, #91, #4 ) ) ;
#177 =( NAMED_UNIT ( * ) SI_UNIT ( $, .STERADIAN. ) SOLID_ANGLE_UNIT ( ) );
#178 = CARTESIAN_POINT ( 'NONE',  ( -4.250000000000000000, 0.000000000000000000, 100.0000000000000000 ) ) ;
#179 = ORIENTED_EDGE ( 'NONE', *, *, #36, .F. ) ;
#180 = DIRECTION ( 'NONE',  ( -1.000000000000000000, 0.000000000000000000, 0.000000000000000000 ) ) ;
#181 = ORIENTED_EDGE ( 'NONE', *, *, #8, .F. ) ;
#182 = DATE_AND_TIME ( #45, #44 ) ;
#183 = CC_DESIGN_PERSON_AND_ORGANIZATION_ASSIGNMENT ( #250, #100, ( #133 ) ) ;
#184 = CC_DESIGN_APPROVAL ( #117, ( #47 ) ) ;
#185 = MANIFOLD_SOLID_BREP ( 'Pøidat vysunutím3', #67 ) ;
#186 = LOCAL_TIME ( 14, 49, 0.000000000000000000, #167 ) ;
#187 = ORIENTED_EDGE ( 'NONE', *, *, #33, .F. ) ;
#188 = LINE ( 'NONE', #55, #217 ) ;
#189 = ADVANCED_FACE ( 'NONE', ( #138 ), #58, .T. ) ;
#190 = DIRECTION ( 'NONE',  ( -0.000000000000000000, -0.000000000000000000, -1.000000000000000000 ) ) ;
#191 = EDGE_LOOP ( 'NONE', ( #112, #19, #215, #5 ) ) ;
#192 =( GEOMETRIC_REPRESENTATION_CONTEXT ( 3 ) GLOBAL_UNCERTAINTY_ASSIGNED_CONTEXT ( ( #15 ) ) GLOBAL_UNIT_ASSIGNED_CONTEXT ( ( #212, #216, #177 ) ) REPRESENTATION_CONTEXT ( 'NONE', 'WORKASPACE' ) );
#193 = VECTOR ( 'NONE', #241, 1000.000000000000000 ) ;
#194 = AXIS2_PLACEMENT_3D ( 'NONE', #201, #219, #180 ) ;
#195 = COORDINATED_UNIVERSAL_TIME_OFFSET ( 1, 0, .AHEAD. ) ;
#196 = APPROVAL_PERSON_ORGANIZATION ( #130, #84, #252 ) ;
#197 = APPROVAL_DATE_TIME ( #121, #12 ) ;
#198 = CARTESIAN_POINT ( 'NONE',  ( 4.250000000000000000, 5.204748896376250699E-16, 6.500000000000000000 ) ) ;
#199 = AXIS2_PLACEMENT_3D ( 'NONE', #42, #116, #129 ) ;
#200 = CARTESIAN_POINT ( 'NONE',  ( 0.000000000000000000, 0.000000000000000000, 0.000000000000000000 ) ) ;
#201 = CARTESIAN_POINT ( 'NONE',  ( 0.000000000000000000, 0.000000000000000000, 6.500000000000000000 ) ) ;
#202 = DIRECTION ( 'NONE',  ( -1.000000000000000000, 0.000000000000000000, 0.000000000000000000 ) ) ;
#203 = EDGE_CURVE ( 'NONE', #39, #74, #205, .T. ) ;
#204 = APPROVAL_STATUS ( 'not_yet_approved' ) ;
#205 = CIRCLE ( 'NONE', #64, 4.250000000000000000 ) ;
#206 = DIRECTION ( 'NONE',  ( 0.000000000000000000, 0.000000000000000000, 1.000000000000000000 ) ) ;
#207 = SECURITY_CLASSIFICATION_LEVEL ( 'unclassified' ) ;
#208 = CARTESIAN_POINT ( 'NONE',  ( -7.000000000000000000, 0.000000000000000000, 6.500000000000000000 ) ) ;
#209 = ORIENTED_EDGE ( 'NONE', *, *, #153, .F. ) ;
#210 = PLANE ( 'NONE',  #147 ) ;
#211 = CIRCLE ( 'NONE', #97, 7.000000000000000000 ) ;
#212 =( LENGTH_UNIT ( ) NAMED_UNIT ( * ) SI_UNIT ( .MILLI., .METRE. ) );
#213 = LOCAL_TIME ( 14, 49, 0.000000000000000000, #69 ) ;
#214 = VERTEX_POINT ( 'NONE', #243 ) ;
#215 = ORIENTED_EDGE ( 'NONE', *, *, #153, .T. ) ;
#216 =( NAMED_UNIT ( * ) PLANE_ANGLE_UNIT ( ) SI_UNIT ( $, .RADIAN. ) );
#217 = VECTOR ( 'NONE', #220, 1000.000000000000000 ) ;
#218 = DATE_AND_TIME ( #65, #52 ) ;
#219 = DIRECTION ( 'NONE',  ( -0.000000000000000000, -0.000000000000000000, -1.000000000000000000 ) ) ;
#220 = DIRECTION ( 'NONE',  ( -0.000000000000000000, -0.000000000000000000, -1.000000000000000000 ) ) ;
#221 = PRODUCT ( 'd305', 'd305', '', ( #59 ) ) ;
#222 = CARTESIAN_POINT ( 'NONE',  ( 0.000000000000000000, 0.000000000000000000, 0.000000000000000000 ) ) ;
#223 = CC_DESIGN_PERSON_AND_ORGANIZATION_ASSIGNMENT ( #27, #146, ( #47 ) ) ;
#224 = APPROVAL_DATE_TIME ( #251, #117 ) ;
#225 = CIRCLE ( 'NONE', #144, 4.250000000000000000 ) ;
#226 = EDGE_CURVE ( 'NONE', #109, #95, #228, .T. ) ;
#227 = CARTESIAN_POINT ( 'NONE',  ( 7.000000000000000000, 8.572527594031471218E-16, 0.000000000000000000 ) ) ;
#228 = CIRCLE ( 'NONE', #107, 7.000000000000000000 ) ;
#229 = APPLICATION_PROTOCOL_DEFINITION ( 'international standard', 'config_control_design', 1994, #127 ) ;
#230 = CALENDAR_DATE ( 2023, 13, 2 ) ;
#231 = CC_DESIGN_PERSON_AND_ORGANIZATION_ASSIGNMENT ( #1, #126, ( #171 ) ) ;
#232 = DATE_TIME_ROLE ( 'classification_date' ) ;
#233 = CC_DESIGN_SECURITY_CLASSIFICATION ( #171, ( #47 ) ) ;
#234 = ADVANCED_BREP_SHAPE_REPRESENTATION ( 'd305', ( #185, #249 ), #192 ) ;
#235 = DIRECTION ( 'NONE',  ( 0.000000000000000000, 0.000000000000000000, 1.000000000000000000 ) ) ;
#236 = DIRECTION ( 'NONE',  ( 1.000000000000000000, 0.000000000000000000, -0.000000000000000000 ) ) ;
#237 = CARTESIAN_POINT ( 'NONE',  ( 0.000000000000000000, 0.000000000000000000, 100.0000000000000000 ) ) ;
#238 = FACE_OUTER_BOUND ( 'NONE', #176, .T. ) ;
#239 = FACE_OUTER_BOUND ( 'NONE', #158, .T. ) ;
#240 = VERTEX_POINT ( 'NONE', #75 ) ;
#241 = DIRECTION ( 'NONE',  ( -0.000000000000000000, -0.000000000000000000, -1.000000000000000000 ) ) ;
#242 = ORIENTED_EDGE ( 'NONE', *, *, #8, .T. ) ;
#243 = CARTESIAN_POINT ( 'NONE',  ( -7.000000000000000000, 0.000000000000000000, 6.500000000000000000 ) ) ;
#244 = ORIENTED_EDGE ( 'NONE', *, *, #36, .T. ) ;
#245 = DIRECTION ( 'NONE',  ( 0.000000000000000000, 0.000000000000000000, 1.000000000000000000 ) ) ;
#246 = ORIENTED_EDGE ( 'NONE', *, *, #76, .F. ) ;
#247 = PERSON_AND_ORGANIZATION ( #173, #169 ) ;
#248 = VECTOR ( 'NONE', #87, 1000.000000000000000 ) ;
#249 = AXIS2_PLACEMENT_3D ( 'NONE', #222, #162, #57 ) ;
#250 = PERSON_AND_ORGANIZATION ( #173, #169 ) ;
#251 = DATE_AND_TIME ( #46, #186 ) ;
#252 = APPROVAL_ROLE ( '' ) ;
#253 = PERSON_AND_ORGANIZATION ( #173, #169 ) ;
#254 = CARTESIAN_POINT ( 'NONE',  ( 0.000000000000000000, 0.000000000000000000, 6.500000000000000000 ) ) ;
#255 = CC_DESIGN_DATE_AND_TIME_ASSIGNMENT ( #182, #60, ( #133 ) ) ;
ENDSEC;
END-ISO-10303-21;
