ISO-10303-21;
HEADER;
FILE_DESCRIPTION (( 'STEP AP203' ),
    '1' );
FILE_NAME ('4e3a.STEP',
    '2023-02-13T07:29:52',
    ( '' ),
    ( '' ),
    'SwSTEP 2.0',
    'SolidWorks 2019',
    '' );
FILE_SCHEMA (( 'CONFIG_CONTROL_DESIGN' ));
ENDSEC;

DATA;
#1 = AXIS2_PLACEMENT_3D ( 'NONE', #127, #23, #108 ) ;
#2 = SECURITY_CLASSIFICATION_LEVEL ( 'unclassified' ) ;
#3 = CC_DESIGN_DATE_AND_TIME_ASSIGNMENT ( #237, #200, ( #24 ) ) ;
#4 = APPROVAL_ROLE ( '' ) ;
#5 = APPROVAL_DATE_TIME ( #185, #147 ) ;
#6 = ADVANCED_FACE ( 'NONE', ( #11 ), #98, .T. ) ;
#7 = ORIENTED_EDGE ( 'NONE', *, *, #62, .T. ) ;
#8 = PERSON_AND_ORGANIZATION ( #45, #36 ) ;
#9 = AXIS2_PLACEMENT_3D ( 'NONE', #105, #247, #173 ) ;
#10 = VECTOR ( 'NONE', #41, 1000.000000000000000 ) ;
#11 = FACE_OUTER_BOUND ( 'NONE', #30, .T. ) ;
#12 = CC_DESIGN_PERSON_AND_ORGANIZATION_ASSIGNMENT ( #47, #128, ( #52 ) ) ;
#13 = COORDINATED_UNIVERSAL_TIME_OFFSET ( 1, 0, .AHEAD. ) ;
#14 = DIRECTION ( 'NONE',  ( 0.000000000000000000, 0.000000000000000000, 1.000000000000000000 ) ) ;
#15 = FACE_OUTER_BOUND ( 'NONE', #208, .T. ) ;
#16 = DIRECTION ( 'NONE',  ( 0.000000000000000000, 0.000000000000000000, 1.000000000000000000 ) ) ;
#17 = CARTESIAN_POINT ( 'NONE',  ( 0.000000000000000000, 0.000000000000000000, 200.0000000000000000 ) ) ;
#18 = VERTEX_POINT ( 'NONE', #99 ) ;
#19 = PLANE ( 'NONE',  #223 ) ;
#20 = DIRECTION ( 'NONE',  ( -0.000000000000000000, -0.000000000000000000, -1.000000000000000000 ) ) ;
#21 = AXIS2_PLACEMENT_3D ( 'NONE', #80, #68, #227 ) ;
#22 = ORIENTED_EDGE ( 'NONE', *, *, #241, .F. ) ;
#23 = DIRECTION ( 'NONE',  ( 0.000000000000000000, 0.000000000000000000, 1.000000000000000000 ) ) ;
#24 = SECURITY_CLASSIFICATION ( '', '', #2 ) ;
#25 = PERSON_AND_ORGANIZATION_ROLE ( 'classification_officer' ) ;
#26 = PERSON_AND_ORGANIZATION ( #45, #36 ) ;
#27 = MANIFOLD_SOLID_BREP ( 'Pøidat vysunutím3', #251 ) ;
#28 = ADVANCED_FACE ( 'NONE', ( #244, #137 ), #231, .T. ) ;
#29 = EDGE_LOOP ( 'NONE', ( #42, #161 ) ) ;
#30 = EDGE_LOOP ( 'NONE', ( #84, #205, #7, #254 ) ) ;
#31 = PRODUCT_RELATED_PRODUCT_CATEGORY ( 'detail', '', ( #52 ) ) ;
#32 = ORIENTED_EDGE ( 'NONE', *, *, #190, .F. ) ;
#33 = DATE_TIME_ROLE ( 'creation_date' ) ;
#34 = DIRECTION ( 'NONE',  ( -0.000000000000000000, -0.000000000000000000, -1.000000000000000000 ) ) ;
#35 = CARTESIAN_POINT ( 'NONE',  ( 0.000000000000000000, 0.000000000000000000, 0.000000000000000000 ) ) ;
#36 = ORGANIZATION ( 'NEURÈENÝ', 'NEURÈENÝ', '' ) ;
#37 = PERSON_AND_ORGANIZATION ( #45, #36 ) ;
#38 = CARTESIAN_POINT ( 'NONE',  ( 20.00000000000000000, 2.449293598294706513E-15, 0.000000000000000000 ) ) ;
#39 = ADVANCED_FACE ( 'NONE', ( #246 ), #67, .T. ) ;
#40 = ADVANCED_FACE ( 'NONE', ( #61 ), #225, .T. ) ;
#41 = DIRECTION ( 'NONE',  ( -0.000000000000000000, -0.000000000000000000, -1.000000000000000000 ) ) ;
#42 = ORIENTED_EDGE ( 'NONE', *, *, #255, .T. ) ;
#43 = DIRECTION ( 'NONE',  ( 0.000000000000000000, 0.000000000000000000, 1.000000000000000000 ) ) ;
#44 = DIRECTION ( 'NONE',  ( 1.000000000000000000, 0.000000000000000000, -0.000000000000000000 ) ) ;
#45 = PERSON ( 'NEURÈENÝ', 'NEURÈENÝ', 'NEURÈENÝ', ('NEURÈENÝ'), ('NEURÈENÝ'), ('NEURÈENÝ') ) ;
#46 = CC_DESIGN_PERSON_AND_ORGANIZATION_ASSIGNMENT ( #86, #87, ( #238 ) ) ;
#47 = PERSON_AND_ORGANIZATION ( #45, #36 ) ;
#48 = CC_DESIGN_SECURITY_CLASSIFICATION ( #24, ( #238 ) ) ;
#49 = APPROVAL_DATE_TIME ( #165, #154 ) ;
#50 = APPLICATION_CONTEXT ( 'configuration controlled 3d designs of mechanical parts and assemblies' ) ;
#51 = ADVANCED_FACE ( 'NONE', ( #76 ), #119, .T. ) ;
#52 = PRODUCT ( '4e3a', '4e3a', '', ( #140 ) ) ;
#53 = EDGE_CURVE ( 'NONE', #178, #94, #206, .T. ) ;
#54 = AXIS2_PLACEMENT_3D ( 'NONE', #139, #102, #209 ) ;
#55 = COORDINATED_UNIVERSAL_TIME_OFFSET ( 1, 0, .AHEAD. ) ;
#56 = CC_DESIGN_PERSON_AND_ORGANIZATION_ASSIGNMENT ( #8, #115, ( #70 ) ) ;
#57 = VERTEX_POINT ( 'NONE', #172 ) ;
#58 = AXIS2_PLACEMENT_3D ( 'NONE', #155, #16, #44 ) ;
#59 = DIRECTION ( 'NONE',  ( -0.000000000000000000, -0.000000000000000000, -1.000000000000000000 ) ) ;
#60 = ORIENTED_EDGE ( 'NONE', *, *, #134, .F. ) ;
#61 = FACE_OUTER_BOUND ( 'NONE', #66, .T. ) ;
#62 = EDGE_CURVE ( 'NONE', #94, #178, #129, .T. ) ;
#63 = DIRECTION ( 'NONE',  ( -1.000000000000000000, 0.000000000000000000, 0.000000000000000000 ) ) ;
#64 = CARTESIAN_POINT ( 'NONE',  ( 16.00000000000000000, 1.959434878635765131E-15, 10.00000000000000000 ) ) ;
#65 = DIRECTION ( 'NONE',  ( -0.000000000000000000, -0.000000000000000000, -1.000000000000000000 ) ) ;
#66 = EDGE_LOOP ( 'NONE', ( #142, #145, #204, #75 ) ) ;
#67 = PLANE ( 'NONE',  #88 ) ;
#68 = DIRECTION ( 'NONE',  ( 0.000000000000000000, 0.000000000000000000, 1.000000000000000000 ) ) ;
#69 = ADVANCED_FACE ( 'NONE', ( #245 ), #19, .F. ) ;
#70 = PRODUCT_DEFINITION ( 'NEZNÁMÝ', '', #238, #148 ) ;
#71 = EDGE_CURVE ( 'NONE', #18, #171, #157, .T. ) ;
#72 = COORDINATED_UNIVERSAL_TIME_OFFSET ( 1, 0, .AHEAD. ) ;
#73 = LOCAL_TIME ( 8, 29, 52.00000000000000000, #13 ) ;
#74 = APPROVAL_STATUS ( 'not_yet_approved' ) ;
#75 = ORIENTED_EDGE ( 'NONE', *, *, #116, .F. ) ;
#76 = FACE_OUTER_BOUND ( 'NONE', #81, .T. ) ;
#77 = EDGE_CURVE ( 'NONE', #250, #196, #167, .T. ) ;
#78 = DIRECTION ( 'NONE',  ( 1.000000000000000000, 0.000000000000000000, 0.000000000000000000 ) ) ;
#79 = LINE ( 'NONE', #228, #97 ) ;
#80 = CARTESIAN_POINT ( 'NONE',  ( 0.000000000000000000, 0.000000000000000000, 200.0000000000000000 ) ) ;
#81 = EDGE_LOOP ( 'NONE', ( #32, #230, #186, #216 ) ) ;
#82 = AXIS2_PLACEMENT_3D ( 'NONE', #156, #252, #78 ) ;
#83 = DIRECTION ( 'NONE',  ( -0.000000000000000000, -0.000000000000000000, -1.000000000000000000 ) ) ;
#84 = ORIENTED_EDGE ( 'NONE', *, *, #71, .F. ) ;
#85 = APPLICATION_PROTOCOL_DEFINITION ( 'international standard', 'config_control_design', 1994, #50 ) ;
#86 = PERSON_AND_ORGANIZATION ( #45, #36 ) ;
#87 = PERSON_AND_ORGANIZATION_ROLE ( 'design_supplier' ) ;
#88 = AXIS2_PLACEMENT_3D ( 'NONE', #126, #194, #197 ) ;
#89 = CALENDAR_DATE ( 2023, 13, 2 ) ;
#90 = APPROVAL_PERSON_ORGANIZATION ( #26, #235, #4 ) ;
#91 = APPLICATION_CONTEXT ( 'configuration controlled 3d designs of mechanical parts and assemblies' ) ;
#92 = EDGE_CURVE ( 'NONE', #57, #183, #150, .T. ) ;
#93 = CALENDAR_DATE ( 2023, 13, 2 ) ;
#94 = VERTEX_POINT ( 'NONE', #38 ) ;
#95 = AXIS2_PLACEMENT_3D ( 'NONE', #103, #34, #63 ) ;
#96 = DATE_AND_TIME ( #168, #131 ) ;
#97 = VECTOR ( 'NONE', #83, 1000.000000000000000 ) ;
#98 = CYLINDRICAL_SURFACE ( 'NONE', #164, 20.00000000000000000 ) ;
#99 = CARTESIAN_POINT ( 'NONE',  ( 20.00000000000000000, 2.449293598294706513E-15, 10.00000000000000000 ) ) ;
#100 = DIRECTION ( 'NONE',  ( 0.000000000000000000, 0.000000000000000000, 1.000000000000000000 ) ) ;
#101 = ADVANCED_BREP_SHAPE_REPRESENTATION ( '4e3a', ( #27, #1 ), #163 ) ;
#102 = DIRECTION ( 'NONE',  ( 0.000000000000000000, 0.000000000000000000, 1.000000000000000000 ) ) ;
#103 = CARTESIAN_POINT ( 'NONE',  ( 0.000000000000000000, 0.000000000000000000, 200.0000000000000000 ) ) ;
#104 = DIRECTION ( 'NONE',  ( -1.000000000000000000, 0.000000000000000000, 0.000000000000000000 ) ) ;
#105 = CARTESIAN_POINT ( 'NONE',  ( 0.000000000000000000, 0.000000000000000000, 10.00000000000000000 ) ) ;
#106 = DIRECTION ( 'NONE',  ( 1.000000000000000000, 0.000000000000000000, 0.000000000000000000 ) ) ;
#107 = AXIS2_PLACEMENT_3D ( 'NONE', #120, #14, #189 ) ;
#108 = DIRECTION ( 'NONE',  ( 1.000000000000000000, 0.000000000000000000, 0.000000000000000000 ) ) ;
#109 = CC_DESIGN_APPROVAL ( #147, ( #70 ) ) ;
#110 = AXIS2_PLACEMENT_3D ( 'NONE', #188, #175, #124 ) ;
#111 = APPROVAL_STATUS ( 'not_yet_approved' ) ;
#112 = CC_DESIGN_PERSON_AND_ORGANIZATION_ASSIGNMENT ( #182, #181, ( #238 ) ) ;
#113 = AXIS2_PLACEMENT_3D ( 'NONE', #212, #214, #176 ) ;
#114 = EDGE_LOOP ( 'NONE', ( #125, #166 ) ) ;
#115 = PERSON_AND_ORGANIZATION_ROLE ( 'creator' ) ;
#116 = EDGE_CURVE ( 'NONE', #183, #196, #226, .T. ) ;
#117 = APPROVAL_ROLE ( '' ) ;
#118 = ORIENTED_EDGE ( 'NONE', *, *, #241, .T. ) ;
#119 = CYLINDRICAL_SURFACE ( 'NONE', #110, 20.00000000000000000 ) ;
#120 = CARTESIAN_POINT ( 'NONE',  ( 0.000000000000000000, 0.000000000000000000, 10.00000000000000000 ) ) ;
#121 = LINE ( 'NONE', #123, #229 ) ;
#122 = CARTESIAN_POINT ( 'NONE',  ( -16.00000000000000000, 0.000000000000000000, 200.0000000000000000 ) ) ;
#123 = CARTESIAN_POINT ( 'NONE',  ( 20.00000000000000000, 2.449293598294706513E-15, 10.00000000000000000 ) ) ;
#124 = DIRECTION ( 'NONE',  ( -1.000000000000000000, 0.000000000000000000, 0.000000000000000000 ) ) ;
#125 = ORIENTED_EDGE ( 'NONE', *, *, #218, .F. ) ;
#126 = CARTESIAN_POINT ( 'NONE',  ( 0.000000000000000000, 0.000000000000000000, 200.0000000000000000 ) ) ;
#127 = CARTESIAN_POINT ( 'NONE',  ( 0.000000000000000000, 0.000000000000000000, 0.000000000000000000 ) ) ;
#128 = PERSON_AND_ORGANIZATION_ROLE ( 'design_owner' ) ;
#129 = CIRCLE ( 'NONE', #54, 20.00000000000000000 ) ;
#130 = APPROVAL_DATE_TIME ( #132, #235 ) ;
#131 = LOCAL_TIME ( 8, 29, 52.00000000000000000, #224 ) ;
#132 = DATE_AND_TIME ( #180, #203 ) ;
#133 = SHAPE_DEFINITION_REPRESENTATION ( #149, #101 ) ;
#134 = EDGE_CURVE ( 'NONE', #57, #250, #79, .T. ) ;
#135 = EDGE_LOOP ( 'NONE', ( #118, #193 ) ) ;
#136 = CC_DESIGN_APPROVAL ( #154, ( #238 ) ) ;
#137 = FACE_OUTER_BOUND ( 'NONE', #29, .T. ) ;
#138 = APPLICATION_PROTOCOL_DEFINITION ( 'international standard', 'config_control_design', 1994, #91 ) ;
#139 = CARTESIAN_POINT ( 'NONE',  ( 0.000000000000000000, 0.000000000000000000, 0.000000000000000000 ) ) ;
#140 = MECHANICAL_CONTEXT ( 'NONE', #50, 'mechanical' ) ;
#141 = AXIS2_PLACEMENT_3D ( 'NONE', #177, #100, #146 ) ;
#142 = ORIENTED_EDGE ( 'NONE', *, *, #92, .F. ) ;
#143 = CARTESIAN_POINT ( 'NONE',  ( -20.00000000000000000, 0.000000000000000000, 0.000000000000000000 ) ) ;
#144 = CARTESIAN_POINT ( 'NONE',  ( -16.00000000000000000, 0.000000000000000000, 10.00000000000000000 ) ) ;
#145 = ORIENTED_EDGE ( 'NONE', *, *, #134, .T. ) ;
#146 = DIRECTION ( 'NONE',  ( 1.000000000000000000, 0.000000000000000000, 0.000000000000000000 ) ) ;
#147 = APPROVAL ( #240, 'NEURÈENÝ' ) ;
#148 = DESIGN_CONTEXT ( 'detailed design', #91, 'design' ) ;
#149 = PRODUCT_DEFINITION_SHAPE ( 'NONE', 'NONE',  #70 ) ;
#150 = CIRCLE ( 'NONE', #82, 16.00000000000000000 ) ;
#151 = APPROVAL_ROLE ( '' ) ;
#152 = EDGE_LOOP ( 'NONE', ( #239, #159 ) ) ;
#153 = PERSON_AND_ORGANIZATION ( #45, #36 ) ;
#154 = APPROVAL ( #74, 'NEURÈENÝ' ) ;
#155 = CARTESIAN_POINT ( 'NONE',  ( 0.000000000000000000, 0.000000000000000000, 10.00000000000000000 ) ) ;
#156 = CARTESIAN_POINT ( 'NONE',  ( 0.000000000000000000, 0.000000000000000000, 200.0000000000000000 ) ) ;
#157 = CIRCLE ( 'NONE', #107, 20.00000000000000000 ) ;
#158 = CIRCLE ( 'NONE', #184, 16.00000000000000000 ) ;
#159 = ORIENTED_EDGE ( 'NONE', *, *, #62, .F. ) ;
#160 = CARTESIAN_POINT ( 'NONE',  ( -20.00000000000000000, 0.000000000000000000, 10.00000000000000000 ) ) ;
#161 = ORIENTED_EDGE ( 'NONE', *, *, #71, .T. ) ;
#162 = CC_DESIGN_APPROVAL ( #235, ( #24 ) ) ;
#163 =( GEOMETRIC_REPRESENTATION_CONTEXT ( 3 ) GLOBAL_UNCERTAINTY_ASSIGNED_CONTEXT ( ( #236 ) ) GLOBAL_UNIT_ASSIGNED_CONTEXT ( ( #174, #248, #195 ) ) REPRESENTATION_CONTEXT ( 'NONE', 'WORKASPACE' ) );
#164 = AXIS2_PLACEMENT_3D ( 'NONE', #243, #59, #187 ) ;
#165 = DATE_AND_TIME ( #89, #169 ) ;
#166 = ORIENTED_EDGE ( 'NONE', *, *, #77, .F. ) ;
#167 = CIRCLE ( 'NONE', #9, 16.00000000000000000 ) ;
#168 = CALENDAR_DATE ( 2023, 13, 2 ) ;
#169 = LOCAL_TIME ( 8, 29, 52.00000000000000000, #55 ) ;
#170 = ORIENTED_EDGE ( 'NONE', *, *, #218, .T. ) ;
#171 = VERTEX_POINT ( 'NONE', #160 ) ;
#172 = CARTESIAN_POINT ( 'NONE',  ( 16.00000000000000000, 1.959434878635765131E-15, 200.0000000000000000 ) ) ;
#173 = DIRECTION ( 'NONE',  ( 1.000000000000000000, 0.000000000000000000, 0.000000000000000000 ) ) ;
#174 =( LENGTH_UNIT ( ) NAMED_UNIT ( * ) SI_UNIT ( .MILLI., .METRE. ) );
#175 = DIRECTION ( 'NONE',  ( -0.000000000000000000, -0.000000000000000000, -1.000000000000000000 ) ) ;
#176 = DIRECTION ( 'NONE',  ( 1.000000000000000000, 0.000000000000000000, 0.000000000000000000 ) ) ;
#177 = CARTESIAN_POINT ( 'NONE',  ( 0.000000000000000000, 0.000000000000000000, 0.000000000000000000 ) ) ;
#178 = VERTEX_POINT ( 'NONE', #143 ) ;
#179 = APPROVAL_PERSON_ORGANIZATION ( #37, #147, #117 ) ;
#180 = CALENDAR_DATE ( 2023, 13, 2 ) ;
#181 = PERSON_AND_ORGANIZATION_ROLE ( 'creator' ) ;
#182 = PERSON_AND_ORGANIZATION ( #45, #36 ) ;
#183 = VERTEX_POINT ( 'NONE', #213 ) ;
#184 = AXIS2_PLACEMENT_3D ( 'NONE', #232, #210, #106 ) ;
#185 = DATE_AND_TIME ( #207, #73 ) ;
#186 = ORIENTED_EDGE ( 'NONE', *, *, #202, .T. ) ;
#187 = DIRECTION ( 'NONE',  ( -1.000000000000000000, 0.000000000000000000, 0.000000000000000000 ) ) ;
#188 = CARTESIAN_POINT ( 'NONE',  ( 0.000000000000000000, 0.000000000000000000, 10.00000000000000000 ) ) ;
#189 = DIRECTION ( 'NONE',  ( 1.000000000000000000, 0.000000000000000000, 0.000000000000000000 ) ) ;
#190 = EDGE_CURVE ( 'NONE', #18, #94, #121, .T. ) ;
#191 = LINE ( 'NONE', #192, #10 ) ;
#192 = CARTESIAN_POINT ( 'NONE',  ( -20.00000000000000000, 0.000000000000000000, 10.00000000000000000 ) ) ;
#193 = ORIENTED_EDGE ( 'NONE', *, *, #92, .T. ) ;
#194 = DIRECTION ( 'NONE',  ( 0.000000000000000000, 0.000000000000000000, 1.000000000000000000 ) ) ;
#195 =( NAMED_UNIT ( * ) SI_UNIT ( $, .STERADIAN. ) SOLID_ANGLE_UNIT ( ) );
#196 = VERTEX_POINT ( 'NONE', #144 ) ;
#197 = DIRECTION ( 'NONE',  ( 1.000000000000000000, 0.000000000000000000, -0.000000000000000000 ) ) ;
#198 = LOCAL_TIME ( 8, 29, 52.00000000000000000, #72 ) ;
#199 = VECTOR ( 'NONE', #65, 1000.000000000000000 ) ;
#200 = DATE_TIME_ROLE ( 'classification_date' ) ;
#201 = AXIS2_PLACEMENT_3D ( 'NONE', #17, #20, #104 ) ;
#202 = EDGE_CURVE ( 'NONE', #171, #178, #191, .T. ) ;
#203 = LOCAL_TIME ( 8, 29, 52.00000000000000000, #222 ) ;
#204 = ORIENTED_EDGE ( 'NONE', *, *, #77, .T. ) ;
#205 = ORIENTED_EDGE ( 'NONE', *, *, #190, .T. ) ;
#206 = CIRCLE ( 'NONE', #141, 20.00000000000000000 ) ;
#207 = CALENDAR_DATE ( 2023, 13, 2 ) ;
#208 = EDGE_LOOP ( 'NONE', ( #60, #22, #242, #170 ) ) ;
#209 = DIRECTION ( 'NONE',  ( 1.000000000000000000, 0.000000000000000000, 0.000000000000000000 ) ) ;
#210 = DIRECTION ( 'NONE',  ( 0.000000000000000000, 0.000000000000000000, 1.000000000000000000 ) ) ;
#211 = DIRECTION ( 'NONE',  ( 1.000000000000000000, 0.000000000000000000, -0.000000000000000000 ) ) ;
#212 = CARTESIAN_POINT ( 'NONE',  ( 0.000000000000000000, 0.000000000000000000, 10.00000000000000000 ) ) ;
#213 = CARTESIAN_POINT ( 'NONE',  ( -16.00000000000000000, 0.000000000000000000, 200.0000000000000000 ) ) ;
#214 = DIRECTION ( 'NONE',  ( 0.000000000000000000, 0.000000000000000000, 1.000000000000000000 ) ) ;
#215 = CC_DESIGN_DATE_AND_TIME_ASSIGNMENT ( #96, #33, ( #70 ) ) ;
#216 = ORIENTED_EDGE ( 'NONE', *, *, #53, .T. ) ;
#217 = CIRCLE ( 'NONE', #113, 20.00000000000000000 ) ;
#218 = EDGE_CURVE ( 'NONE', #196, #250, #158, .T. ) ;
#219 = CIRCLE ( 'NONE', #21, 16.00000000000000000 ) ;
#220 = CC_DESIGN_PERSON_AND_ORGANIZATION_ASSIGNMENT ( #234, #25, ( #24 ) ) ;
#221 = APPROVAL_PERSON_ORGANIZATION ( #153, #154, #151 ) ;
#222 = COORDINATED_UNIVERSAL_TIME_OFFSET ( 1, 0, .AHEAD. ) ;
#223 = AXIS2_PLACEMENT_3D ( 'NONE', #35, #43, #211 ) ;
#224 = COORDINATED_UNIVERSAL_TIME_OFFSET ( 1, 0, .AHEAD. ) ;
#225 = CYLINDRICAL_SURFACE ( 'NONE', #95, 16.00000000000000000 ) ;
#226 = LINE ( 'NONE', #122, #199 ) ;
#227 = DIRECTION ( 'NONE',  ( 1.000000000000000000, 0.000000000000000000, 0.000000000000000000 ) ) ;
#228 = CARTESIAN_POINT ( 'NONE',  ( 16.00000000000000000, 1.959434878635765131E-15, 200.0000000000000000 ) ) ;
#229 = VECTOR ( 'NONE', #233, 1000.000000000000000 ) ;
#230 = ORIENTED_EDGE ( 'NONE', *, *, #255, .F. ) ;
#231 = PLANE ( 'NONE',  #58 ) ;
#232 = CARTESIAN_POINT ( 'NONE',  ( 0.000000000000000000, 0.000000000000000000, 10.00000000000000000 ) ) ;
#233 = DIRECTION ( 'NONE',  ( -0.000000000000000000, -0.000000000000000000, -1.000000000000000000 ) ) ;
#234 = PERSON_AND_ORGANIZATION ( #45, #36 ) ;
#235 = APPROVAL ( #111, 'NEURÈENÝ' ) ;
#236 = UNCERTAINTY_MEASURE_WITH_UNIT (LENGTH_MEASURE( 1.000000000000000082E-05 ), #174, 'distance_accuracy_value', 'NONE');
#237 = DATE_AND_TIME ( #93, #198 ) ;
#238 = PRODUCT_DEFINITION_FORMATION_WITH_SPECIFIED_SOURCE ( 'LIBOVOLNÝ', '', #52, .NOT_KNOWN. ) ;
#239 = ORIENTED_EDGE ( 'NONE', *, *, #53, .F. ) ;
#240 = APPROVAL_STATUS ( 'not_yet_approved' ) ;
#241 = EDGE_CURVE ( 'NONE', #183, #57, #219, .T. ) ;
#242 = ORIENTED_EDGE ( 'NONE', *, *, #116, .T. ) ;
#243 = CARTESIAN_POINT ( 'NONE',  ( 0.000000000000000000, 0.000000000000000000, 10.00000000000000000 ) ) ;
#244 = FACE_BOUND ( 'NONE', #114, .T. ) ;
#245 = FACE_OUTER_BOUND ( 'NONE', #152, .T. ) ;
#246 = FACE_OUTER_BOUND ( 'NONE', #135, .T. ) ;
#247 = DIRECTION ( 'NONE',  ( 0.000000000000000000, 0.000000000000000000, 1.000000000000000000 ) ) ;
#248 =( NAMED_UNIT ( * ) PLANE_ANGLE_UNIT ( ) SI_UNIT ( $, .RADIAN. ) );
#249 = ADVANCED_FACE ( 'NONE', ( #15 ), #253, .T. ) ;
#250 = VERTEX_POINT ( 'NONE', #64 ) ;
#251 = CLOSED_SHELL ( 'NONE', ( #40, #6, #51, #28, #69, #249, #39 ) ) ;
#252 = DIRECTION ( 'NONE',  ( 0.000000000000000000, 0.000000000000000000, 1.000000000000000000 ) ) ;
#253 = CYLINDRICAL_SURFACE ( 'NONE', #201, 16.00000000000000000 ) ;
#254 = ORIENTED_EDGE ( 'NONE', *, *, #202, .F. ) ;
#255 = EDGE_CURVE ( 'NONE', #171, #18, #217, .T. ) ;
ENDSEC;
END-ISO-10303-21;
