ISO-10303-21;
HEADER;
FILE_DESCRIPTION (( 'STEP AP203' ),
    '1' );
FILE_NAME ('902a.STEP',
    '2023-02-13T09:45:50',
    ( '' ),
    ( '' ),
    'SwSTEP 2.0',
    'SolidWorks 2019',
    '' );
FILE_SCHEMA (( 'CONFIG_CONTROL_DESIGN' ));
ENDSEC;

DATA;
#1 = COORDINATED_UNIVERSAL_TIME_OFFSET ( 1, 0, .AHEAD. ) ;
#2 = VECTOR ( 'NONE', #91, 1000.000000000000000 ) ;
#3 = EDGE_LOOP ( 'NONE', ( #104, #202 ) ) ;
#4 = CALENDAR_DATE ( 2023, 13, 2 ) ;
#5 = EDGE_LOOP ( 'NONE', ( #17, #121 ) ) ;
#6 =( NAMED_UNIT ( * ) PLANE_ANGLE_UNIT ( ) SI_UNIT ( $, .RADIAN. ) );
#7 = ORIENTED_EDGE ( 'NONE', *, *, #193, .F. ) ;
#8 = DIRECTION ( 'NONE',  ( -0.000000000000000000, -0.000000000000000000, -1.000000000000000000 ) ) ;
#9 = DIRECTION ( 'NONE',  ( -0.000000000000000000, -0.000000000000000000, -1.000000000000000000 ) ) ;
#10 = PLANE ( 'NONE',  #228 ) ;
#11 = PRODUCT_DEFINITION ( 'NEZNÁMÝ', '', #190, #161 ) ;
#12 = DIRECTION ( 'NONE',  ( 0.000000000000000000, 0.000000000000000000, 1.000000000000000000 ) ) ;
#13 = DIRECTION ( 'NONE',  ( 1.000000000000000000, 0.000000000000000000, 0.000000000000000000 ) ) ;
#14 = EDGE_LOOP ( 'NONE', ( #44, #192 ) ) ;
#15 =( LENGTH_UNIT ( ) NAMED_UNIT ( * ) SI_UNIT ( .MILLI., .METRE. ) );
#16 = APPROVAL_STATUS ( 'not_yet_approved' ) ;
#17 = ORIENTED_EDGE ( 'NONE', *, *, #235, .T. ) ;
#18 = PERSON_AND_ORGANIZATION ( #254, #240 ) ;
#19 = PERSON_AND_ORGANIZATION_ROLE ( 'creator' ) ;
#20 = VERTEX_POINT ( 'NONE', #125 ) ;
#21 = MECHANICAL_CONTEXT ( 'NONE', #77, 'mechanical' ) ;
#22 = LINE ( 'NONE', #85, #204 ) ;
#23 = DIRECTION ( 'NONE',  ( 0.000000000000000000, 0.000000000000000000, 1.000000000000000000 ) ) ;
#24 = DIRECTION ( 'NONE',  ( 1.000000000000000000, 0.000000000000000000, -0.000000000000000000 ) ) ;
#25 = FACE_OUTER_BOUND ( 'NONE', #14, .T. ) ;
#26 = AXIS2_PLACEMENT_3D ( 'NONE', #64, #148, #24 ) ;
#27 = CC_DESIGN_PERSON_AND_ORGANIZATION_ASSIGNMENT ( #18, #99, ( #190 ) ) ;
#28 = CARTESIAN_POINT ( 'NONE',  ( 0.000000000000000000, 0.000000000000000000, 0.000000000000000000 ) ) ;
#29 = VERTEX_POINT ( 'NONE', #65 ) ;
#30 = AXIS2_PLACEMENT_3D ( 'NONE', #244, #12, #187 ) ;
#31 = CARTESIAN_POINT ( 'NONE',  ( 11.00000000000000000, 1.347111479062088405E-15, 7.000000000000000000 ) ) ;
#32 = EDGE_LOOP ( 'NONE', ( #250, #7, #212, #201 ) ) ;
#33 = VECTOR ( 'NONE', #76, 1000.000000000000000 ) ;
#34 = COORDINATED_UNIVERSAL_TIME_OFFSET ( 1, 0, .AHEAD. ) ;
#35 = COORDINATED_UNIVERSAL_TIME_OFFSET ( 1, 0, .AHEAD. ) ;
#36 = ORIENTED_EDGE ( 'NONE', *, *, #165, .T. ) ;
#37 = COORDINATED_UNIVERSAL_TIME_OFFSET ( 1, 0, .AHEAD. ) ;
#38 = DATE_TIME_ROLE ( 'creation_date' ) ;
#39 = ORIENTED_EDGE ( 'NONE', *, *, #105, .T. ) ;
#40 = DATE_AND_TIME ( #231, #140 ) ;
#41 = FACE_OUTER_BOUND ( 'NONE', #188, .T. ) ;
#42 = DIRECTION ( 'NONE',  ( 1.000000000000000000, 0.000000000000000000, 0.000000000000000000 ) ) ;
#43 = CARTESIAN_POINT ( 'NONE',  ( 0.000000000000000000, 0.000000000000000000, 630.0000000000000000 ) ) ;
#44 = ORIENTED_EDGE ( 'NONE', *, *, #193, .T. ) ;
#45 = DIRECTION ( 'NONE',  ( 0.000000000000000000, 0.000000000000000000, 1.000000000000000000 ) ) ;
#46 = CIRCLE ( 'NONE', #229, 11.00000000000000000 ) ;
#47 = CYLINDRICAL_SURFACE ( 'NONE', #128, 11.00000000000000000 ) ;
#48 = AXIS2_PLACEMENT_3D ( 'NONE', #211, #167, #13 ) ;
#49 = DIRECTION ( 'NONE',  ( 0.000000000000000000, 0.000000000000000000, 1.000000000000000000 ) ) ;
#50 = EDGE_CURVE ( 'NONE', #94, #221, #102, .T. ) ;
#51 = PERSON_AND_ORGANIZATION ( #254, #240 ) ;
#52 = AXIS2_PLACEMENT_3D ( 'NONE', #208, #23, #241 ) ;
#53 = LOCAL_TIME ( 10, 45, 50.00000000000000000, #34 ) ;
#54 = PERSON_AND_ORGANIZATION_ROLE ( 'classification_officer' ) ;
#55 = APPROVAL_ROLE ( '' ) ;
#56 = ORIENTED_EDGE ( 'NONE', *, *, #81, .F. ) ;
#57 =( NAMED_UNIT ( * ) SI_UNIT ( $, .STERADIAN. ) SOLID_ANGLE_UNIT ( ) );
#58 = APPROVAL_DATE_TIME ( #156, #115 ) ;
#59 = SECURITY_CLASSIFICATION ( '', '', #220 ) ;
#60 = APPROVAL ( #84, 'NEURÈENÝ' ) ;
#61 = DIRECTION ( 'NONE',  ( 1.000000000000000000, 0.000000000000000000, 0.000000000000000000 ) ) ;
#62 = COORDINATED_UNIVERSAL_TIME_OFFSET ( 1, 0, .AHEAD. ) ;
#63 = UNCERTAINTY_MEASURE_WITH_UNIT (LENGTH_MEASURE( 1.000000000000000082E-05 ), #15, 'distance_accuracy_value', 'NONE');
#64 = CARTESIAN_POINT ( 'NONE',  ( 0.000000000000000000, 0.000000000000000000, 7.000000000000000000 ) ) ;
#65 = CARTESIAN_POINT ( 'NONE',  ( 11.00000000000000000, 1.347111479062088405E-15, 0.000000000000000000 ) ) ;
#66 = PRODUCT ( '902a', '902a', '', ( #21 ) ) ;
#67 = ORIENTED_EDGE ( 'NONE', *, *, #199, .F. ) ;
#68 = EDGE_CURVE ( 'NONE', #20, #180, #22, .T. ) ;
#69 = DIRECTION ( 'NONE',  ( -0.000000000000000000, -0.000000000000000000, -1.000000000000000000 ) ) ;
#70 = CARTESIAN_POINT ( 'NONE',  ( 7.000000000000000888, 8.572527594031474176E-16, 7.000000000000000000 ) ) ;
#71 = AXIS2_PLACEMENT_3D ( 'NONE', #78, #79, #144 ) ;
#72 = CC_DESIGN_PERSON_AND_ORGANIZATION_ASSIGNMENT ( #51, #225, ( #190 ) ) ;
#73 = DIRECTION ( 'NONE',  ( -0.000000000000000000, -0.000000000000000000, -1.000000000000000000 ) ) ;
#74 = ORIENTED_EDGE ( 'NONE', *, *, #68, .T. ) ;
#75 = CC_DESIGN_APPROVAL ( #115, ( #190 ) ) ;
#76 = DIRECTION ( 'NONE',  ( -0.000000000000000000, -0.000000000000000000, -1.000000000000000000 ) ) ;
#77 = APPLICATION_CONTEXT ( 'configuration controlled 3d designs of mechanical parts and assemblies' ) ;
#78 = CARTESIAN_POINT ( 'NONE',  ( 0.000000000000000000, 0.000000000000000000, 0.000000000000000000 ) ) ;
#79 = DIRECTION ( 'NONE',  ( 0.000000000000000000, 0.000000000000000000, 1.000000000000000000 ) ) ;
#80 = VERTEX_POINT ( 'NONE', #232 ) ;
#81 = EDGE_CURVE ( 'NONE', #20, #198, #175, .T. ) ;
#82 = DATE_AND_TIME ( #4, #53 ) ;
#83 = EDGE_CURVE ( 'NONE', #179, #180, #223, .T. ) ;
#84 = APPROVAL_STATUS ( 'not_yet_approved' ) ;
#85 = CARTESIAN_POINT ( 'NONE',  ( 7.000000000000000888, 8.572527594031474176E-16, 630.0000000000000000 ) ) ;
#86 = FACE_OUTER_BOUND ( 'NONE', #5, .T. ) ;
#87 = PERSON_AND_ORGANIZATION ( #254, #240 ) ;
#88 = LINE ( 'NONE', #185, #126 ) ;
#89 = DIRECTION ( 'NONE',  ( 0.000000000000000000, 0.000000000000000000, 1.000000000000000000 ) ) ;
#90 = DIRECTION ( 'NONE',  ( 1.000000000000000000, 0.000000000000000000, -0.000000000000000000 ) ) ;
#91 = DIRECTION ( 'NONE',  ( -0.000000000000000000, -0.000000000000000000, -1.000000000000000000 ) ) ;
#92 = CC_DESIGN_DATE_AND_TIME_ASSIGNMENT ( #103, #176, ( #59 ) ) ;
#93 = AXIS2_PLACEMENT_3D ( 'NONE', #113, #8, #111 ) ;
#94 = VERTEX_POINT ( 'NONE', #110 ) ;
#95 = CYLINDRICAL_SURFACE ( 'NONE', #233, 7.000000000000000888 ) ;
#96 = PRODUCT_DEFINITION_SHAPE ( 'NONE', 'NONE',  #11 ) ;
#97 = DIRECTION ( 'NONE',  ( -0.000000000000000000, -0.000000000000000000, -1.000000000000000000 ) ) ;
#98 = AXIS2_PLACEMENT_3D ( 'NONE', #28, #243, #166 ) ;
#99 = PERSON_AND_ORGANIZATION_ROLE ( 'design_supplier' ) ;
#100 = PERSON_AND_ORGANIZATION ( #254, #240 ) ;
#101 = ORIENTED_EDGE ( 'NONE', *, *, #246, .T. ) ;
#102 = CIRCLE ( 'NONE', #218, 11.00000000000000000 ) ;
#103 = DATE_AND_TIME ( #197, #205 ) ;
#104 = ORIENTED_EDGE ( 'NONE', *, *, #182, .F. ) ;
#105 = EDGE_CURVE ( 'NONE', #29, #80, #252, .T. ) ;
#106 = PERSON_AND_ORGANIZATION ( #254, #240 ) ;
#107 = ORIENTED_EDGE ( 'NONE', *, *, #158, .F. ) ;
#108 = AXIS2_PLACEMENT_3D ( 'NONE', #43, #206, #162 ) ;
#109 = CC_DESIGN_SECURITY_CLASSIFICATION ( #59, ( #190 ) ) ;
#110 = CARTESIAN_POINT ( 'NONE',  ( 11.00000000000000000, 1.347111479062088405E-15, 7.000000000000000000 ) ) ;
#111 = DIRECTION ( 'NONE',  ( -1.000000000000000000, 0.000000000000000000, 0.000000000000000000 ) ) ;
#112 = DIRECTION ( 'NONE',  ( 1.000000000000000000, 0.000000000000000000, 0.000000000000000000 ) ) ;
#113 = CARTESIAN_POINT ( 'NONE',  ( 0.000000000000000000, 0.000000000000000000, 7.000000000000000000 ) ) ;
#114 = CARTESIAN_POINT ( 'NONE',  ( -7.000000000000000888, 0.000000000000000000, 7.000000000000000000 ) ) ;
#115 = APPROVAL ( #157, 'NEURÈENÝ' ) ;
#116 = CLOSED_SHELL ( 'NONE', ( #251, #122, #216, #155, #172, #151, #130 ) ) ;
#117 = ORIENTED_EDGE ( 'NONE', *, *, #235, .F. ) ;
#118 = APPLICATION_CONTEXT ( 'configuration controlled 3d designs of mechanical parts and assemblies' ) ;
#119 = CALENDAR_DATE ( 2023, 13, 2 ) ;
#120 = ORIENTED_EDGE ( 'NONE', *, *, #83, .F. ) ;
#121 = ORIENTED_EDGE ( 'NONE', *, *, #81, .T. ) ;
#122 = ADVANCED_FACE ( 'NONE', ( #131 ), #245, .T. ) ;
#123 = DATE_AND_TIME ( #119, #210 ) ;
#124 = ORIENTED_EDGE ( 'NONE', *, *, #68, .F. ) ;
#125 = CARTESIAN_POINT ( 'NONE',  ( 7.000000000000000888, 8.572527594031474176E-16, 630.0000000000000000 ) ) ;
#126 = VECTOR ( 'NONE', #9, 1000.000000000000000 ) ;
#127 = SHAPE_DEFINITION_REPRESENTATION ( #96, #238 ) ;
#128 = AXIS2_PLACEMENT_3D ( 'NONE', #189, #97, #214 ) ;
#129 = CYLINDRICAL_SURFACE ( 'NONE', #108, 7.000000000000000888 ) ;
#130 = ADVANCED_FACE ( 'NONE', ( #86 ), #10, .T. ) ;
#131 = FACE_OUTER_BOUND ( 'NONE', #133, .T. ) ;
#132 = PLANE ( 'NONE',  #26 ) ;
#133 = EDGE_LOOP ( 'NONE', ( #196, #101, #39, #67 ) ) ;
#134 = CARTESIAN_POINT ( 'NONE',  ( 0.000000000000000000, 0.000000000000000000, 7.000000000000000000 ) ) ;
#135 = APPROVAL ( #16, 'NEURÈENÝ' ) ;
#136 = CARTESIAN_POINT ( 'NONE',  ( -11.00000000000000000, 0.000000000000000000, 7.000000000000000000 ) ) ;
#137 = CARTESIAN_POINT ( 'NONE',  ( -7.000000000000000888, 0.000000000000000000, 630.0000000000000000 ) ) ;
#138 = AXIS2_PLACEMENT_3D ( 'NONE', #134, #45, #112 ) ;
#139 = DIRECTION ( 'NONE',  ( -1.000000000000000000, 0.000000000000000000, 0.000000000000000000 ) ) ;
#140 = LOCAL_TIME ( 10, 45, 50.00000000000000000, #62 ) ;
#141 = CC_DESIGN_DATE_AND_TIME_ASSIGNMENT ( #82, #38, ( #11 ) ) ;
#142 = PERSON_AND_ORGANIZATION ( #254, #240 ) ;
#143 = LOCAL_TIME ( 10, 45, 50.00000000000000000, #1 ) ;
#144 = DIRECTION ( 'NONE',  ( 1.000000000000000000, 0.000000000000000000, 0.000000000000000000 ) ) ;
#145 = ORIENTED_EDGE ( 'NONE', *, *, #83, .T. ) ;
#146 = APPROVAL_ROLE ( '' ) ;
#147 = PRODUCT_RELATED_PRODUCT_CATEGORY ( 'detail', '', ( #66 ) ) ;
#148 = DIRECTION ( 'NONE',  ( 0.000000000000000000, 0.000000000000000000, 1.000000000000000000 ) ) ;
#149 = CARTESIAN_POINT ( 'NONE',  ( 0.000000000000000000, 0.000000000000000000, 630.0000000000000000 ) ) ;
#150 = PLANE ( 'NONE',  #98 ) ;
#151 = ADVANCED_FACE ( 'NONE', ( #41 ), #129, .T. ) ;
#152 = CARTESIAN_POINT ( 'NONE',  ( 0.000000000000000000, 0.000000000000000000, 7.000000000000000000 ) ) ;
#153 =( GEOMETRIC_REPRESENTATION_CONTEXT ( 3 ) GLOBAL_UNCERTAINTY_ASSIGNED_CONTEXT ( ( #63 ) ) GLOBAL_UNIT_ASSIGNED_CONTEXT ( ( #15, #6, #57 ) ) REPRESENTATION_CONTEXT ( 'NONE', 'WORKASPACE' ) );
#154 = FACE_OUTER_BOUND ( 'NONE', #32, .T. ) ;
#155 = ADVANCED_FACE ( 'NONE', ( #242, #25 ), #132, .T. ) ;
#156 = DATE_AND_TIME ( #239, #143 ) ;
#157 = APPROVAL_STATUS ( 'not_yet_approved' ) ;
#158 = EDGE_CURVE ( 'NONE', #180, #179, #237, .T. ) ;
#159 = APPROVAL_PERSON_ORGANIZATION ( #87, #60, #146 ) ;
#160 = APPROVAL_DATE_TIME ( #40, #60 ) ;
#161 = DESIGN_CONTEXT ( 'detailed design', #118, 'design' ) ;
#162 = DIRECTION ( 'NONE',  ( -1.000000000000000000, 0.000000000000000000, 0.000000000000000000 ) ) ;
#163 = CIRCLE ( 'NONE', #30, 11.00000000000000000 ) ;
#164 = FACE_OUTER_BOUND ( 'NONE', #3, .T. ) ;
#165 = EDGE_CURVE ( 'NONE', #198, #179, #88, .T. ) ;
#166 = DIRECTION ( 'NONE',  ( 1.000000000000000000, 0.000000000000000000, -0.000000000000000000 ) ) ;
#167 = DIRECTION ( 'NONE',  ( 0.000000000000000000, 0.000000000000000000, 1.000000000000000000 ) ) ;
#168 = ORIENTED_EDGE ( 'NONE', *, *, #165, .F. ) ;
#169 = EDGE_LOOP ( 'NONE', ( #56, #74, #226, #168 ) ) ;
#170 = CARTESIAN_POINT ( 'NONE',  ( -11.00000000000000000, 0.000000000000000000, 7.000000000000000000 ) ) ;
#171 = LINE ( 'NONE', #170, #33 ) ;
#172 = ADVANCED_FACE ( 'NONE', ( #164 ), #150, .F. ) ;
#173 = PERSON_AND_ORGANIZATION ( #254, #240 ) ;
#174 = EDGE_LOOP ( 'NONE', ( #120, #107 ) ) ;
#175 = CIRCLE ( 'NONE', #52, 7.000000000000000888 ) ;
#176 = DATE_TIME_ROLE ( 'classification_date' ) ;
#177 = CC_DESIGN_PERSON_AND_ORGANIZATION_ASSIGNMENT ( #173, #54, ( #59 ) ) ;
#178 = APPLICATION_PROTOCOL_DEFINITION ( 'international standard', 'config_control_design', 1994, #118 ) ;
#179 = VERTEX_POINT ( 'NONE', #114 ) ;
#180 = VERTEX_POINT ( 'NONE', #70 ) ;
#181 = AXIS2_PLACEMENT_3D ( 'NONE', #207, #89, #61 ) ;
#182 = EDGE_CURVE ( 'NONE', #80, #29, #163, .T. ) ;
#183 = CARTESIAN_POINT ( 'NONE',  ( 0.000000000000000000, 0.000000000000000000, 0.000000000000000000 ) ) ;
#184 = DIRECTION ( 'NONE',  ( 1.000000000000000000, 0.000000000000000000, 0.000000000000000000 ) ) ;
#185 = CARTESIAN_POINT ( 'NONE',  ( -7.000000000000000888, 0.000000000000000000, 630.0000000000000000 ) ) ;
#186 = DIRECTION ( 'NONE',  ( 0.000000000000000000, 0.000000000000000000, 1.000000000000000000 ) ) ;
#187 = DIRECTION ( 'NONE',  ( 1.000000000000000000, 0.000000000000000000, 0.000000000000000000 ) ) ;
#188 = EDGE_LOOP ( 'NONE', ( #124, #117, #36, #145 ) ) ;
#189 = CARTESIAN_POINT ( 'NONE',  ( 0.000000000000000000, 0.000000000000000000, 7.000000000000000000 ) ) ;
#190 = PRODUCT_DEFINITION_FORMATION_WITH_SPECIFIED_SOURCE ( 'LIBOVOLNÝ', '', #66, .NOT_KNOWN. ) ;
#191 = CC_DESIGN_PERSON_AND_ORGANIZATION_ASSIGNMENT ( #255, #194, ( #66 ) ) ;
#192 = ORIENTED_EDGE ( 'NONE', *, *, #50, .T. ) ;
#193 = EDGE_CURVE ( 'NONE', #221, #94, #46, .T. ) ;
#194 = PERSON_AND_ORGANIZATION_ROLE ( 'design_owner' ) ;
#195 = APPROVAL_DATE_TIME ( #123, #135 ) ;
#196 = ORIENTED_EDGE ( 'NONE', *, *, #50, .F. ) ;
#197 = CALENDAR_DATE ( 2023, 13, 2 ) ;
#198 = VERTEX_POINT ( 'NONE', #137 ) ;
#199 = EDGE_CURVE ( 'NONE', #221, #80, #171, .T. ) ;
#200 = APPROVAL_PERSON_ORGANIZATION ( #106, #135, #55 ) ;
#201 = ORIENTED_EDGE ( 'NONE', *, *, #182, .T. ) ;
#202 = ORIENTED_EDGE ( 'NONE', *, *, #105, .F. ) ;
#203 = MANIFOLD_SOLID_BREP ( 'Pøidat vysunutím3', #116 ) ;
#204 = VECTOR ( 'NONE', #69, 1000.000000000000000 ) ;
#205 = LOCAL_TIME ( 10, 45, 50.00000000000000000, #35 ) ;
#206 = DIRECTION ( 'NONE',  ( -0.000000000000000000, -0.000000000000000000, -1.000000000000000000 ) ) ;
#207 = CARTESIAN_POINT ( 'NONE',  ( 0.000000000000000000, 0.000000000000000000, 7.000000000000000000 ) ) ;
#208 = CARTESIAN_POINT ( 'NONE',  ( 0.000000000000000000, 0.000000000000000000, 630.0000000000000000 ) ) ;
#209 = CC_DESIGN_PERSON_AND_ORGANIZATION_ASSIGNMENT ( #100, #19, ( #11 ) ) ;
#210 = LOCAL_TIME ( 10, 45, 50.00000000000000000, #37 ) ;
#211 = CARTESIAN_POINT ( 'NONE',  ( 0.000000000000000000, 0.000000000000000000, 630.0000000000000000 ) ) ;
#212 = ORIENTED_EDGE ( 'NONE', *, *, #199, .T. ) ;
#213 = LINE ( 'NONE', #31, #2 ) ;
#214 = DIRECTION ( 'NONE',  ( -1.000000000000000000, 0.000000000000000000, 0.000000000000000000 ) ) ;
#215 = CC_DESIGN_APPROVAL ( #135, ( #11 ) ) ;
#216 = ADVANCED_FACE ( 'NONE', ( #154 ), #47, .T. ) ;
#217 = CARTESIAN_POINT ( 'NONE',  ( 0.000000000000000000, 0.000000000000000000, 630.0000000000000000 ) ) ;
#218 = AXIS2_PLACEMENT_3D ( 'NONE', #230, #234, #184 ) ;
#219 = CC_DESIGN_APPROVAL ( #60, ( #59 ) ) ;
#220 = SECURITY_CLASSIFICATION_LEVEL ( 'unclassified' ) ;
#221 = VERTEX_POINT ( 'NONE', #136 ) ;
#222 = APPLICATION_PROTOCOL_DEFINITION ( 'international standard', 'config_control_design', 1994, #77 ) ;
#223 = CIRCLE ( 'NONE', #181, 7.000000000000000888 ) ;
#224 = APPROVAL_PERSON_ORGANIZATION ( #142, #115, #236 ) ;
#225 = PERSON_AND_ORGANIZATION_ROLE ( 'creator' ) ;
#226 = ORIENTED_EDGE ( 'NONE', *, *, #158, .T. ) ;
#227 = DIRECTION ( 'NONE',  ( 0.000000000000000000, 0.000000000000000000, 1.000000000000000000 ) ) ;
#228 = AXIS2_PLACEMENT_3D ( 'NONE', #149, #186, #90 ) ;
#229 = AXIS2_PLACEMENT_3D ( 'NONE', #152, #49, #249 ) ;
#230 = CARTESIAN_POINT ( 'NONE',  ( 0.000000000000000000, 0.000000000000000000, 7.000000000000000000 ) ) ;
#231 = CALENDAR_DATE ( 2023, 13, 2 ) ;
#232 = CARTESIAN_POINT ( 'NONE',  ( -11.00000000000000000, 0.000000000000000000, 0.000000000000000000 ) ) ;
#233 = AXIS2_PLACEMENT_3D ( 'NONE', #217, #73, #139 ) ;
#234 = DIRECTION ( 'NONE',  ( 0.000000000000000000, 0.000000000000000000, 1.000000000000000000 ) ) ;
#235 = EDGE_CURVE ( 'NONE', #198, #20, #253, .T. ) ;
#236 = APPROVAL_ROLE ( '' ) ;
#237 = CIRCLE ( 'NONE', #138, 7.000000000000000888 ) ;
#238 = ADVANCED_BREP_SHAPE_REPRESENTATION ( '902a', ( #203, #71 ), #153 ) ;
#239 = CALENDAR_DATE ( 2023, 13, 2 ) ;
#240 = ORGANIZATION ( 'NEURÈENÝ', 'NEURÈENÝ', '' ) ;
#241 = DIRECTION ( 'NONE',  ( 1.000000000000000000, 0.000000000000000000, 0.000000000000000000 ) ) ;
#242 = FACE_BOUND ( 'NONE', #174, .T. ) ;
#243 = DIRECTION ( 'NONE',  ( 0.000000000000000000, 0.000000000000000000, 1.000000000000000000 ) ) ;
#244 = CARTESIAN_POINT ( 'NONE',  ( 0.000000000000000000, 0.000000000000000000, 0.000000000000000000 ) ) ;
#245 = CYLINDRICAL_SURFACE ( 'NONE', #93, 11.00000000000000000 ) ;
#246 = EDGE_CURVE ( 'NONE', #94, #29, #213, .T. ) ;
#247 = AXIS2_PLACEMENT_3D ( 'NONE', #183, #227, #42 ) ;
#248 = FACE_OUTER_BOUND ( 'NONE', #169, .T. ) ;
#249 = DIRECTION ( 'NONE',  ( 1.000000000000000000, 0.000000000000000000, 0.000000000000000000 ) ) ;
#250 = ORIENTED_EDGE ( 'NONE', *, *, #246, .F. ) ;
#251 = ADVANCED_FACE ( 'NONE', ( #248 ), #95, .T. ) ;
#252 = CIRCLE ( 'NONE', #247, 11.00000000000000000 ) ;
#253 = CIRCLE ( 'NONE', #48, 7.000000000000000888 ) ;
#254 = PERSON ( 'NEURÈENÝ', 'NEURÈENÝ', 'NEURÈENÝ', ('NEURÈENÝ'), ('NEURÈENÝ'), ('NEURÈENÝ') ) ;
#255 = PERSON_AND_ORGANIZATION ( #254, #240 ) ;
ENDSEC;
END-ISO-10303-21;
