ISO-10303-21;
HEADER;
FILE_DESCRIPTION (( 'STEP AP203' ),
    '1' );
FILE_NAME ('b9be.STEP',
    '2023-02-13T17:16:46',
    ( '' ),
    ( '' ),
    'SwSTEP 2.0',
    'SolidWorks 2019',
    '' );
FILE_SCHEMA (( 'CONFIG_CONTROL_DESIGN' ));
ENDSEC;

DATA;
#1 = ORIENTED_EDGE ( 'NONE', *, *, #47, .F. ) ;
#2 = CALENDAR_DATE ( 2023, 13, 2 ) ;
#3 = COORDINATED_UNIVERSAL_TIME_OFFSET ( 1, 0, .AHEAD. ) ;
#4 = APPROVAL_ROLE ( '' ) ;
#5 = FACE_OUTER_BOUND ( 'NONE', #65, .T. ) ;
#6 = DIRECTION ( 'NONE',  ( 1.000000000000000000, 0.000000000000000000, 0.000000000000000000 ) ) ;
#7 = EDGE_LOOP ( 'NONE', ( #11, #1, #171, #192 ) ) ;
#8 = EDGE_CURVE ( 'NONE', #96, #79, #203, .T. ) ;
#9 = LOCAL_TIME ( 18, 16, 46.00000000000000000, #3 ) ;
#10 = APPLICATION_PROTOCOL_DEFINITION ( 'international standard', 'config_control_design', 1994, #83 ) ;
#11 = ORIENTED_EDGE ( 'NONE', *, *, #99, .F. ) ;
#12 = CC_DESIGN_SECURITY_CLASSIFICATION ( #180, ( #229 ) ) ;
#13 = DIRECTION ( 'NONE',  ( 1.000000000000000000, 0.000000000000000000, 0.000000000000000000 ) ) ;
#14 = DIRECTION ( 'NONE',  ( 1.000000000000000000, 0.000000000000000000, 0.000000000000000000 ) ) ;
#15 = DIRECTION ( 'NONE',  ( -1.000000000000000000, 0.000000000000000000, 0.000000000000000000 ) ) ;
#16 = FACE_OUTER_BOUND ( 'NONE', #224, .T. ) ;
#17 = DIRECTION ( 'NONE',  ( 1.000000000000000000, 0.000000000000000000, 0.000000000000000000 ) ) ;
#18 = AXIS2_PLACEMENT_3D ( 'NONE', #169, #69, #147 ) ;
#19 = APPROVAL_DATE_TIME ( #220, #223 ) ;
#20 = DIRECTION ( 'NONE',  ( 0.000000000000000000, 0.000000000000000000, 1.000000000000000000 ) ) ;
#21 = CC_DESIGN_PERSON_AND_ORGANIZATION_ASSIGNMENT ( #182, #102, ( #125 ) ) ;
#22 = EDGE_CURVE ( 'NONE', #167, #96, #49, .T. ) ;
#23 = COORDINATED_UNIVERSAL_TIME_OFFSET ( 1, 0, .AHEAD. ) ;
#24 = EDGE_LOOP ( 'NONE', ( #228, #155 ) ) ;
#25 = ADVANCED_FACE ( 'NONE', ( #73 ), #151, .T. ) ;
#26 = APPROVAL_STATUS ( 'not_yet_approved' ) ;
#27 = CARTESIAN_POINT ( 'NONE',  ( 0.000000000000000000, 0.000000000000000000, 0.000000000000000000 ) ) ;
#28 = DIRECTION ( 'NONE',  ( -0.000000000000000000, -0.000000000000000000, -1.000000000000000000 ) ) ;
#29 = EDGE_LOOP ( 'NONE', ( #170, #136, #204, #54 ) ) ;
#30 =( NAMED_UNIT ( * ) PLANE_ANGLE_UNIT ( ) SI_UNIT ( $, .RADIAN. ) );
#31 = CARTESIAN_POINT ( 'NONE',  ( 0.000000000000000000, 0.000000000000000000, 1.500000000000000000 ) ) ;
#32 = AXIS2_PLACEMENT_3D ( 'NONE', #185, #93, #15 ) ;
#33 = VERTEX_POINT ( 'NONE', #52 ) ;
#34 = CARTESIAN_POINT ( 'NONE',  ( 2.000000000000000000, 2.449293598294706414E-16, 0.000000000000000000 ) ) ;
#35 = DIRECTION ( 'NONE',  ( -0.000000000000000000, -0.000000000000000000, -1.000000000000000000 ) ) ;
#36 = DIRECTION ( 'NONE',  ( 0.000000000000000000, 0.000000000000000000, 1.000000000000000000 ) ) ;
#37 = AXIS2_PLACEMENT_3D ( 'NONE', #184, #251, #6 ) ;
#38 = CALENDAR_DATE ( 2023, 13, 2 ) ;
#39 = ORIENTED_EDGE ( 'NONE', *, *, #241, .F. ) ;
#40 = PERSON_AND_ORGANIZATION ( #63, #144 ) ;
#41 = CARTESIAN_POINT ( 'NONE',  ( -0.8499999999999999778, 0.000000000000000000, 1.500000000000000000 ) ) ;
#42 = CC_DESIGN_APPROVAL ( #223, ( #180 ) ) ;
#43 = DATE_AND_TIME ( #2, #44 ) ;
#44 = LOCAL_TIME ( 18, 16, 46.00000000000000000, #217 ) ;
#45 = EDGE_LOOP ( 'NONE', ( #250, #88, #174, #118 ) ) ;
#46 = DIRECTION ( 'NONE',  ( -1.000000000000000000, 0.000000000000000000, 0.000000000000000000 ) ) ;
#47 = EDGE_CURVE ( 'NONE', #167, #33, #225, .T. ) ;
#48 = PERSON_AND_ORGANIZATION_ROLE ( 'design_owner' ) ;
#49 = LINE ( 'NONE', #189, #255 ) ;
#50 = ORIENTED_EDGE ( 'NONE', *, *, #186, .F. ) ;
#51 = LOCAL_TIME ( 18, 16, 46.00000000000000000, #82 ) ;
#52 = CARTESIAN_POINT ( 'NONE',  ( 0.8499999999999999778, 1.040949779275250140E-16, 160.0000000000000000 ) ) ;
#53 = AXIS2_PLACEMENT_3D ( 'NONE', #27, #20, #245 ) ;
#54 = ORIENTED_EDGE ( 'NONE', *, *, #70, .F. ) ;
#55 = ORIENTED_EDGE ( 'NONE', *, *, #70, .T. ) ;
#56 = CC_DESIGN_APPROVAL ( #80, ( #125 ) ) ;
#57 = CC_DESIGN_DATE_AND_TIME_ASSIGNMENT ( #43, #138, ( #180 ) ) ;
#58 = COORDINATED_UNIVERSAL_TIME_OFFSET ( 1, 0, .AHEAD. ) ;
#59 = CALENDAR_DATE ( 2023, 13, 2 ) ;
#60 = CARTESIAN_POINT ( 'NONE',  ( -2.000000000000000000, 0.000000000000000000, 1.500000000000000000 ) ) ;
#61 = CALENDAR_DATE ( 2023, 13, 2 ) ;
#62 = EDGE_CURVE ( 'NONE', #146, #92, #133, .T. ) ;
#63 = PERSON ( 'NEURÈENÝ', 'NEURÈENÝ', 'NEURÈENÝ', ('NEURÈENÝ'), ('NEURÈENÝ'), ('NEURÈENÝ') ) ;
#64 = CARTESIAN_POINT ( 'NONE',  ( 0.000000000000000000, 0.000000000000000000, 0.000000000000000000 ) ) ;
#65 = EDGE_LOOP ( 'NONE', ( #39, #179 ) ) ;
#66 = AXIS2_PLACEMENT_3D ( 'NONE', #177, #97, #13 ) ;
#67 = ADVANCED_FACE ( 'NONE', ( #113 ), #114, .T. ) ;
#68 = EDGE_CURVE ( 'NONE', #146, #226, #213, .T. ) ;
#69 = DIRECTION ( 'NONE',  ( 0.000000000000000000, 0.000000000000000000, 1.000000000000000000 ) ) ;
#70 = EDGE_CURVE ( 'NONE', #92, #233, #116, .T. ) ;
#71 = AXIS2_PLACEMENT_3D ( 'NONE', #64, #145, #227 ) ;
#72 = FACE_OUTER_BOUND ( 'NONE', #24, .T. ) ;
#73 = FACE_OUTER_BOUND ( 'NONE', #107, .T. ) ;
#74 = PERSON_AND_ORGANIZATION ( #63, #144 ) ;
#75 = APPROVAL_PERSON_ORGANIZATION ( #74, #80, #76 ) ;
#76 = APPROVAL_ROLE ( '' ) ;
#77 = DIRECTION ( 'NONE',  ( 0.000000000000000000, 0.000000000000000000, 1.000000000000000000 ) ) ;
#78 = DIRECTION ( 'NONE',  ( 1.000000000000000000, 0.000000000000000000, -0.000000000000000000 ) ) ;
#79 = VERTEX_POINT ( 'NONE', #165 ) ;
#80 = APPROVAL ( #235, 'NEURÈENÝ' ) ;
#81 = APPROVAL_STATUS ( 'not_yet_approved' ) ;
#82 = COORDINATED_UNIVERSAL_TIME_OFFSET ( 1, 0, .AHEAD. ) ;
#83 = APPLICATION_CONTEXT ( 'configuration controlled 3d designs of mechanical parts and assemblies' ) ;
#84 = ADVANCED_FACE ( 'NONE', ( #5 ), #124, .F. ) ;
#85 = PERSON_AND_ORGANIZATION_ROLE ( 'creator' ) ;
#86 = CIRCLE ( 'NONE', #106, 0.8499999999999999778 ) ;
#87 = CARTESIAN_POINT ( 'NONE',  ( -0.8499999999999999778, 0.000000000000000000, 160.0000000000000000 ) ) ;
#88 = ORIENTED_EDGE ( 'NONE', *, *, #99, .T. ) ;
#89 = CYLINDRICAL_SURFACE ( 'NONE', #104, 0.8499999999999999778 ) ;
#90 = AXIS2_PLACEMENT_3D ( 'NONE', #239, #150, #214 ) ;
#91 = CIRCLE ( 'NONE', #18, 0.8499999999999999778 ) ;
#92 = VERTEX_POINT ( 'NONE', #60 ) ;
#93 = DIRECTION ( 'NONE',  ( -0.000000000000000000, -0.000000000000000000, -1.000000000000000000 ) ) ;
#94 = DIRECTION ( 'NONE',  ( -0.000000000000000000, -0.000000000000000000, -1.000000000000000000 ) ) ;
#95 = FACE_BOUND ( 'NONE', #148, .T. ) ;
#96 = VERTEX_POINT ( 'NONE', #41 ) ;
#97 = DIRECTION ( 'NONE',  ( 0.000000000000000000, 0.000000000000000000, 1.000000000000000000 ) ) ;
#98 = ORIENTED_EDGE ( 'NONE', *, *, #164, .F. ) ;
#99 = EDGE_CURVE ( 'NONE', #33, #79, #121, .T. ) ;
#100 = ADVANCED_BREP_SHAPE_REPRESENTATION ( 'b9be', ( #230, #90 ), #206 ) ;
#101 = APPROVAL_ROLE ( '' ) ;
#102 = PERSON_AND_ORGANIZATION_ROLE ( 'creator' ) ;
#103 = CARTESIAN_POINT ( 'NONE',  ( 2.000000000000000000, 2.449293598294706414E-16, 1.500000000000000000 ) ) ;
#104 = AXIS2_PLACEMENT_3D ( 'NONE', #202, #28, #46 ) ;
#105 = CC_DESIGN_PERSON_AND_ORGANIZATION_ASSIGNMENT ( #194, #243, ( #180 ) ) ;
#106 = AXIS2_PLACEMENT_3D ( 'NONE', #205, #166, #252 ) ;
#107 = EDGE_LOOP ( 'NONE', ( #111, #240 ) ) ;
#108 = LOCAL_TIME ( 18, 16, 46.00000000000000000, #58 ) ;
#109 = CYLINDRICAL_SURFACE ( 'NONE', #32, 2.000000000000000000 ) ;
#110 =( NAMED_UNIT ( * ) SI_UNIT ( $, .STERADIAN. ) SOLID_ANGLE_UNIT ( ) );
#111 = ORIENTED_EDGE ( 'NONE', *, *, #47, .T. ) ;
#112 = APPLICATION_PROTOCOL_DEFINITION ( 'international standard', 'config_control_design', 1994, #153 ) ;
#113 = FACE_OUTER_BOUND ( 'NONE', #45, .T. ) ;
#114 = CYLINDRICAL_SURFACE ( 'NONE', #221, 0.8499999999999999778 ) ;
#115 = DESIGN_CONTEXT ( 'detailed design', #153, 'design' ) ;
#116 = LINE ( 'NONE', #160, #142 ) ;
#117 = MECHANICAL_CONTEXT ( 'NONE', #83, 'mechanical' ) ;
#118 = ORIENTED_EDGE ( 'NONE', *, *, #22, .F. ) ;
#119 = APPROVAL_PERSON_ORGANIZATION ( #246, #223, #101 ) ;
#120 = DATE_TIME_ROLE ( 'creation_date' ) ;
#121 = LINE ( 'NONE', #141, #248 ) ;
#122 = APPROVAL_PERSON_ORGANIZATION ( #222, #139, #4 ) ;
#123 = PRODUCT_RELATED_PRODUCT_CATEGORY ( 'detail', '', ( #238 ) ) ;
#124 = PLANE ( 'NONE',  #53 ) ;
#125 = PRODUCT_DEFINITION ( 'NEZNÁMÝ', '', #229, #115 ) ;
#126 = FACE_OUTER_BOUND ( 'NONE', #29, .T. ) ;
#127 = PRODUCT_DEFINITION_SHAPE ( 'NONE', 'NONE',  #125 ) ;
#128 = CIRCLE ( 'NONE', #71, 2.000000000000000000 ) ;
#129 = AXIS2_PLACEMENT_3D ( 'NONE', #135, #231, #211 ) ;
#130 = CARTESIAN_POINT ( 'NONE',  ( 0.000000000000000000, 0.000000000000000000, 1.500000000000000000 ) ) ;
#131 = PLANE ( 'NONE',  #218 ) ;
#132 = CARTESIAN_POINT ( 'NONE',  ( 0.000000000000000000, 0.000000000000000000, 160.0000000000000000 ) ) ;
#133 = CIRCLE ( 'NONE', #196, 2.000000000000000000 ) ;
#134 = DIRECTION ( 'NONE',  ( -1.000000000000000000, 0.000000000000000000, 0.000000000000000000 ) ) ;
#135 = CARTESIAN_POINT ( 'NONE',  ( 0.000000000000000000, 0.000000000000000000, 160.0000000000000000 ) ) ;
#136 = ORIENTED_EDGE ( 'NONE', *, *, #68, .T. ) ;
#137 = DATE_AND_TIME ( #38, #216 ) ;
#139 = APPROVAL ( #81, 'NEURÈENÝ' ) ;
#138 = DATE_TIME_ROLE ( 'classification_date' ) ;
#140 = PERSON_AND_ORGANIZATION_ROLE ( 'design_supplier' ) ;
#141 = CARTESIAN_POINT ( 'NONE',  ( 0.8499999999999999778, 1.040949779275250140E-16, 160.0000000000000000 ) ) ;
#142 = VECTOR ( 'NONE', #199, 1000.000000000000000 ) ;
#143 = ORIENTED_EDGE ( 'NONE', *, *, #241, .T. ) ;
#144 = ORGANIZATION ( 'NEURÈENÝ', 'NEURÈENÝ', '' ) ;
#145 = DIRECTION ( 'NONE',  ( 0.000000000000000000, 0.000000000000000000, 1.000000000000000000 ) ) ;
#146 = VERTEX_POINT ( 'NONE', #103 ) ;
#147 = DIRECTION ( 'NONE',  ( 1.000000000000000000, 0.000000000000000000, 0.000000000000000000 ) ) ;
#148 = EDGE_LOOP ( 'NONE', ( #219, #98 ) ) ;
#149 = CC_DESIGN_PERSON_AND_ORGANIZATION_ASSIGNMENT ( #40, #140, ( #229 ) ) ;
#150 = DIRECTION ( 'NONE',  ( 0.000000000000000000, 0.000000000000000000, 1.000000000000000000 ) ) ;
#151 = PLANE ( 'NONE',  #244 ) ;
#152 = CC_DESIGN_PERSON_AND_ORGANIZATION_ASSIGNMENT ( #193, #48, ( #238 ) ) ;
#153 = APPLICATION_CONTEXT ( 'configuration controlled 3d designs of mechanical parts and assemblies' ) ;
#154 = DIRECTION ( 'NONE',  ( -0.000000000000000000, -0.000000000000000000, -1.000000000000000000 ) ) ;
#155 = ORIENTED_EDGE ( 'NONE', *, *, #62, .T. ) ;
#156 = CC_DESIGN_APPROVAL ( #139, ( #229 ) ) ;
#157 = AXIS2_PLACEMENT_3D ( 'NONE', #31, #237, #17 ) ;
#158 = CARTESIAN_POINT ( 'NONE',  ( 2.000000000000000000, 2.449293598294706414E-16, 1.500000000000000000 ) ) ;
#159 = DATE_AND_TIME ( #61, #108 ) ;
#160 = CARTESIAN_POINT ( 'NONE',  ( -2.000000000000000000, 0.000000000000000000, 1.500000000000000000 ) ) ;
#161 = APPROVAL_DATE_TIME ( #137, #139 ) ;
#162 = CALENDAR_DATE ( 2023, 13, 2 ) ;
#163 = SECURITY_CLASSIFICATION_LEVEL ( 'unclassified' ) ;
#164 = EDGE_CURVE ( 'NONE', #79, #96, #91, .T. ) ;
#165 = CARTESIAN_POINT ( 'NONE',  ( 0.8499999999999999778, 1.040949779275250140E-16, 1.500000000000000000 ) ) ;
#166 = DIRECTION ( 'NONE',  ( 0.000000000000000000, 0.000000000000000000, 1.000000000000000000 ) ) ;
#167 = VERTEX_POINT ( 'NONE', #87 ) ;
#168 = VECTOR ( 'NONE', #35, 1000.000000000000000 ) ;
#169 = CARTESIAN_POINT ( 'NONE',  ( 0.000000000000000000, 0.000000000000000000, 1.500000000000000000 ) ) ;
#170 = ORIENTED_EDGE ( 'NONE', *, *, #62, .F. ) ;
#171 = ORIENTED_EDGE ( 'NONE', *, *, #22, .T. ) ;
#172 = EDGE_CURVE ( 'NONE', #33, #167, #86, .T. ) ;
#173 = CIRCLE ( 'NONE', #37, 2.000000000000000000 ) ;
#174 = ORIENTED_EDGE ( 'NONE', *, *, #164, .T. ) ;
#175 = CARTESIAN_POINT ( 'NONE',  ( 0.000000000000000000, 0.000000000000000000, 1.500000000000000000 ) ) ;
#176 = DIRECTION ( 'NONE',  ( -0.000000000000000000, -0.000000000000000000, -1.000000000000000000 ) ) ;
#177 = CARTESIAN_POINT ( 'NONE',  ( 0.000000000000000000, 0.000000000000000000, 0.000000000000000000 ) ) ;
#178 = CLOSED_SHELL ( 'NONE', ( #67, #207, #236, #212, #84, #197, #25 ) ) ;
#179 = ORIENTED_EDGE ( 'NONE', *, *, #200, .F. ) ;
#180 = SECURITY_CLASSIFICATION ( '', '', #163 ) ;
#181 = PERSON_AND_ORGANIZATION ( #63, #144 ) ;
#182 = PERSON_AND_ORGANIZATION ( #63, #144 ) ;
#183 = AXIS2_PLACEMENT_3D ( 'NONE', #175, #154, #208 ) ;
#184 = CARTESIAN_POINT ( 'NONE',  ( 0.000000000000000000, 0.000000000000000000, 1.500000000000000000 ) ) ;
#185 = CARTESIAN_POINT ( 'NONE',  ( 0.000000000000000000, 0.000000000000000000, 1.500000000000000000 ) ) ;
#186 = EDGE_CURVE ( 'NONE', #92, #146, #173, .T. ) ;
#187 = CARTESIAN_POINT ( 'NONE',  ( 0.000000000000000000, 0.000000000000000000, 1.500000000000000000 ) ) ;
#188 = CYLINDRICAL_SURFACE ( 'NONE', #183, 2.000000000000000000 ) ;
#189 = CARTESIAN_POINT ( 'NONE',  ( -0.8499999999999999778, 0.000000000000000000, 160.0000000000000000 ) ) ;
#190 = UNCERTAINTY_MEASURE_WITH_UNIT (LENGTH_MEASURE( 1.000000000000000082E-05 ), #210, 'distance_accuracy_value', 'NONE');
#191 = CARTESIAN_POINT ( 'NONE',  ( -2.000000000000000000, 0.000000000000000000, 0.000000000000000000 ) ) ;
#192 = ORIENTED_EDGE ( 'NONE', *, *, #8, .T. ) ;
#193 = PERSON_AND_ORGANIZATION ( #63, #144 ) ;
#195 = CC_DESIGN_PERSON_AND_ORGANIZATION_ASSIGNMENT ( #181, #85, ( #229 ) ) ;
#194 = PERSON_AND_ORGANIZATION ( #63, #144 ) ;
#196 = AXIS2_PLACEMENT_3D ( 'NONE', #130, #209, #14 ) ;
#197 = ADVANCED_FACE ( 'NONE', ( #249 ), #89, .T. ) ;
#198 = SHAPE_DEFINITION_REPRESENTATION ( #127, #100 ) ;
#199 = DIRECTION ( 'NONE',  ( -0.000000000000000000, -0.000000000000000000, -1.000000000000000000 ) ) ;
#200 = EDGE_CURVE ( 'NONE', #226, #233, #128, .T. ) ;
#201 = APPROVAL_DATE_TIME ( #242, #80 ) ;
#202 = CARTESIAN_POINT ( 'NONE',  ( 0.000000000000000000, 0.000000000000000000, 160.0000000000000000 ) ) ;
#203 = CIRCLE ( 'NONE', #157, 0.8499999999999999778 ) ;
#204 = ORIENTED_EDGE ( 'NONE', *, *, #200, .T. ) ;
#205 = CARTESIAN_POINT ( 'NONE',  ( 0.000000000000000000, 0.000000000000000000, 160.0000000000000000 ) ) ;
#206 =( GEOMETRIC_REPRESENTATION_CONTEXT ( 3 ) GLOBAL_UNCERTAINTY_ASSIGNED_CONTEXT ( ( #190 ) ) GLOBAL_UNIT_ASSIGNED_CONTEXT ( ( #210, #30, #110 ) ) REPRESENTATION_CONTEXT ( 'NONE', 'WORKASPACE' ) );
#207 = ADVANCED_FACE ( 'NONE', ( #126 ), #109, .T. ) ;
#208 = DIRECTION ( 'NONE',  ( -1.000000000000000000, 0.000000000000000000, 0.000000000000000000 ) ) ;
#209 = DIRECTION ( 'NONE',  ( 0.000000000000000000, 0.000000000000000000, 1.000000000000000000 ) ) ;
#210 =( LENGTH_UNIT ( ) NAMED_UNIT ( * ) SI_UNIT ( .MILLI., .METRE. ) );
#211 = DIRECTION ( 'NONE',  ( 1.000000000000000000, 0.000000000000000000, 0.000000000000000000 ) ) ;
#212 = ADVANCED_FACE ( 'NONE', ( #95, #72 ), #131, .T. ) ;
#213 = LINE ( 'NONE', #158, #168 ) ;
#214 = DIRECTION ( 'NONE',  ( 1.000000000000000000, 0.000000000000000000, 0.000000000000000000 ) ) ;
#215 = ORIENTED_EDGE ( 'NONE', *, *, #68, .F. ) ;
#216 = LOCAL_TIME ( 18, 16, 46.00000000000000000, #23 ) ;
#217 = COORDINATED_UNIVERSAL_TIME_OFFSET ( 1, 0, .AHEAD. ) ;
#218 = AXIS2_PLACEMENT_3D ( 'NONE', #187, #36, #78 ) ;
#219 = ORIENTED_EDGE ( 'NONE', *, *, #8, .F. ) ;
#220 = DATE_AND_TIME ( #59, #9 ) ;
#221 = AXIS2_PLACEMENT_3D ( 'NONE', #254, #176, #134 ) ;
#222 = PERSON_AND_ORGANIZATION ( #63, #144 ) ;
#223 = APPROVAL ( #26, 'NEURÈENÝ' ) ;
#224 = EDGE_LOOP ( 'NONE', ( #215, #50, #55, #143 ) ) ;
#225 = CIRCLE ( 'NONE', #129, 0.8499999999999999778 ) ;
#226 = VERTEX_POINT ( 'NONE', #34 ) ;
#227 = DIRECTION ( 'NONE',  ( 1.000000000000000000, 0.000000000000000000, 0.000000000000000000 ) ) ;
#228 = ORIENTED_EDGE ( 'NONE', *, *, #186, .T. ) ;
#229 = PRODUCT_DEFINITION_FORMATION_WITH_SPECIFIED_SOURCE ( 'LIBOVOLNÝ', '', #238, .NOT_KNOWN. ) ;
#230 = MANIFOLD_SOLID_BREP ( 'Pøidat vysunutím3', #178 ) ;
#231 = DIRECTION ( 'NONE',  ( 0.000000000000000000, 0.000000000000000000, 1.000000000000000000 ) ) ;
#232 = CC_DESIGN_DATE_AND_TIME_ASSIGNMENT ( #159, #120, ( #125 ) ) ;
#233 = VERTEX_POINT ( 'NONE', #191 ) ;
#234 = CIRCLE ( 'NONE', #66, 2.000000000000000000 ) ;
#235 = APPROVAL_STATUS ( 'not_yet_approved' ) ;
#236 = ADVANCED_FACE ( 'NONE', ( #16 ), #188, .T. ) ;
#237 = DIRECTION ( 'NONE',  ( 0.000000000000000000, 0.000000000000000000, 1.000000000000000000 ) ) ;
#238 = PRODUCT ( 'b9be', 'b9be', '', ( #117 ) ) ;
#239 = CARTESIAN_POINT ( 'NONE',  ( 0.000000000000000000, 0.000000000000000000, 0.000000000000000000 ) ) ;
#240 = ORIENTED_EDGE ( 'NONE', *, *, #172, .T. ) ;
#241 = EDGE_CURVE ( 'NONE', #233, #226, #234, .T. ) ;
#242 = DATE_AND_TIME ( #162, #51 ) ;
#243 = PERSON_AND_ORGANIZATION_ROLE ( 'classification_officer' ) ;
#244 = AXIS2_PLACEMENT_3D ( 'NONE', #132, #77, #253 ) ;
#245 = DIRECTION ( 'NONE',  ( 1.000000000000000000, 0.000000000000000000, -0.000000000000000000 ) ) ;
#246 = PERSON_AND_ORGANIZATION ( #63, #144 ) ;
#247 = DIRECTION ( 'NONE',  ( -0.000000000000000000, -0.000000000000000000, -1.000000000000000000 ) ) ;
#248 = VECTOR ( 'NONE', #247, 1000.000000000000000 ) ;
#249 = FACE_OUTER_BOUND ( 'NONE', #7, .T. ) ;
#250 = ORIENTED_EDGE ( 'NONE', *, *, #172, .F. ) ;
#251 = DIRECTION ( 'NONE',  ( 0.000000000000000000, 0.000000000000000000, 1.000000000000000000 ) ) ;
#252 = DIRECTION ( 'NONE',  ( 1.000000000000000000, 0.000000000000000000, 0.000000000000000000 ) ) ;
#253 = DIRECTION ( 'NONE',  ( 1.000000000000000000, 0.000000000000000000, -0.000000000000000000 ) ) ;
#254 = CARTESIAN_POINT ( 'NONE',  ( 0.000000000000000000, 0.000000000000000000, 160.0000000000000000 ) ) ;
#255 = VECTOR ( 'NONE', #94, 1000.000000000000000 ) ;
ENDSEC;
END-ISO-10303-21;
