ISO-10303-21;
HEADER;
FILE_DESCRIPTION (( 'STEP AP203' ),
    '1' );
FILE_NAME ('5446.STEP',
    '2023-02-13T17:17:00',
    ( '' ),
    ( '' ),
    'SwSTEP 2.0',
    'SolidWorks 2019',
    '' );
FILE_SCHEMA (( 'CONFIG_CONTROL_DESIGN' ));
ENDSEC;

DATA;
#1 = ORIENTED_EDGE ( 'NONE', *, *, #73, .T. ) ;
#2 = CIRCLE ( 'NONE', #218, 2.000000000000000000 ) ;
#3 = VERTEX_POINT ( 'NONE', #40 ) ;
#4 = PRODUCT_DEFINITION_FORMATION_WITH_SPECIFIED_SOURCE ( 'LIBOVOLNÝ', '', #239, .NOT_KNOWN. ) ;
#5 = ADVANCED_BREP_SHAPE_REPRESENTATION ( '5446', ( #50, #93 ), #146 ) ;
#6 = ORIENTED_EDGE ( 'NONE', *, *, #113, .F. ) ;
#7 = CARTESIAN_POINT ( 'NONE',  ( 0.000000000000000000, 0.000000000000000000, 125.0000000000000000 ) ) ;
#8 = DIRECTION ( 'NONE',  ( 1.000000000000000000, 0.000000000000000000, 0.000000000000000000 ) ) ;
#9 = DIRECTION ( 'NONE',  ( 0.000000000000000000, 0.000000000000000000, 1.000000000000000000 ) ) ;
#10 = SECURITY_CLASSIFICATION ( '', '', #20 ) ;
#11 = ORIENTED_EDGE ( 'NONE', *, *, #253, .T. ) ;
#12 = VECTOR ( 'NONE', #229, 1000.000000000000000 ) ;
#13 = COORDINATED_UNIVERSAL_TIME_OFFSET ( 1, 0, .AHEAD. ) ;
#14 = CARTESIAN_POINT ( 'NONE',  ( 0.000000000000000000, 0.000000000000000000, 125.0000000000000000 ) ) ;
#15 = DIRECTION ( 'NONE',  ( -0.000000000000000000, -0.000000000000000000, -1.000000000000000000 ) ) ;
#16 = APPROVAL ( #136, 'NEURÈENÝ' ) ;
#17 = CLOSED_SHELL ( 'NONE', ( #154, #114, #202, #200, #188, #173, #80 ) ) ;
#18 = CC_DESIGN_APPROVAL ( #232, ( #4 ) ) ;
#19 = DIRECTION ( 'NONE',  ( 1.000000000000000000, 0.000000000000000000, -0.000000000000000000 ) ) ;
#20 = SECURITY_CLASSIFICATION_LEVEL ( 'unclassified' ) ;
#21 = AXIS2_PLACEMENT_3D ( 'NONE', #7, #152, #220 ) ;
#22 = ORIENTED_EDGE ( 'NONE', *, *, #253, .F. ) ;
#23 = EDGE_CURVE ( 'NONE', #251, #236, #2, .T. ) ;
#24 = FACE_OUTER_BOUND ( 'NONE', #42, .T. ) ;
#25 = CARTESIAN_POINT ( 'NONE',  ( 2.000000000000000000, 2.449293598294706414E-16, 0.000000000000000000 ) ) ;
#26 = EDGE_LOOP ( 'NONE', ( #216, #76, #62, #234 ) ) ;
#27 = PERSON_AND_ORGANIZATION ( #92, #37 ) ;
#28 = PERSON_AND_ORGANIZATION ( #92, #37 ) ;
#29 = PERSON_AND_ORGANIZATION_ROLE ( 'creator' ) ;
#30 = PLANE ( 'NONE',  #46 ) ;
#31 = DATE_TIME_ROLE ( 'creation_date' ) ;
#32 = CARTESIAN_POINT ( 'NONE',  ( 0.8499999999999999778, 1.040949779275250140E-16, 125.0000000000000000 ) ) ;
#33 = APPROVAL_STATUS ( 'not_yet_approved' ) ;
#34 = CARTESIAN_POINT ( 'NONE',  ( -2.000000000000000000, 0.000000000000000000, 0.000000000000000000 ) ) ;
#35 = DATE_AND_TIME ( #204, #176 ) ;
#36 = VECTOR ( 'NONE', #205, 1000.000000000000000 ) ;
#37 = ORGANIZATION ( 'NEURÈENÝ', 'NEURÈENÝ', '' ) ;
#38 = SHAPE_DEFINITION_REPRESENTATION ( #79, #5 ) ;
#39 = APPROVAL_PERSON_ORGANIZATION ( #88, #232, #209 ) ;
#40 = CARTESIAN_POINT ( 'NONE',  ( -0.8499999999999999778, 0.000000000000000000, 1.500000000000000000 ) ) ;
#41 = APPROVAL_ROLE ( '' ) ;
#42 = EDGE_LOOP ( 'NONE', ( #233, #133, #129, #1 ) ) ;
#43 = APPROVAL_DATE_TIME ( #223, #16 ) ;
#44 = COORDINATED_UNIVERSAL_TIME_OFFSET ( 1, 0, .AHEAD. ) ;
#45 = CARTESIAN_POINT ( 'NONE',  ( 0.8499999999999999778, 1.040949779275250140E-16, 125.0000000000000000 ) ) ;
#46 = AXIS2_PLACEMENT_3D ( 'NONE', #84, #157, #87 ) ;
#47 = DIRECTION ( 'NONE',  ( 1.000000000000000000, 0.000000000000000000, 0.000000000000000000 ) ) ;
#48 = DIRECTION ( 'NONE',  ( 1.000000000000000000, 0.000000000000000000, 0.000000000000000000 ) ) ;
#49 = LOCAL_TIME ( 18, 17, 0.000000000000000000, #44 ) ;
#50 = MANIFOLD_SOLID_BREP ( 'Pøidat vysunutím3', #17 ) ;
#51 = APPROVAL_DATE_TIME ( #54, #232 ) ;
#52 = PLANE ( 'NONE',  #249 ) ;
#53 = CC_DESIGN_PERSON_AND_ORGANIZATION_ASSIGNMENT ( #124, #55, ( #4 ) ) ;
#54 = DATE_AND_TIME ( #228, #81 ) ;
#55 = PERSON_AND_ORGANIZATION_ROLE ( 'creator' ) ;
#56 = PLANE ( 'NONE',  #166 ) ;
#57 = VERTEX_POINT ( 'NONE', #25 ) ;
#58 = EDGE_LOOP ( 'NONE', ( #172, #6, #255, #11 ) ) ;
#59 = VERTEX_POINT ( 'NONE', #99 ) ;
#60 = DIRECTION ( 'NONE',  ( 0.000000000000000000, 0.000000000000000000, 1.000000000000000000 ) ) ;
#61 = EDGE_CURVE ( 'NONE', #97, #131, #70, .T. ) ;
#62 = ORIENTED_EDGE ( 'NONE', *, *, #210, .T. ) ;
#63 = CARTESIAN_POINT ( 'NONE',  ( 0.000000000000000000, 0.000000000000000000, 1.500000000000000000 ) ) ;
#64 = CC_DESIGN_PERSON_AND_ORGANIZATION_ASSIGNMENT ( #95, #207, ( #10 ) ) ;
#65 = CARTESIAN_POINT ( 'NONE',  ( 0.000000000000000000, 0.000000000000000000, 1.500000000000000000 ) ) ;
#66 = AXIS2_PLACEMENT_3D ( 'NONE', #140, #15, #224 ) ;
#67 = FACE_OUTER_BOUND ( 'NONE', #153, .T. ) ;
#68 = CARTESIAN_POINT ( 'NONE',  ( 0.000000000000000000, 0.000000000000000000, 1.500000000000000000 ) ) ;
#69 = EDGE_CURVE ( 'NONE', #251, #174, #115, .T. ) ;
#70 = CIRCLE ( 'NONE', #21, 0.8499999999999999778 ) ;
#71 = DIRECTION ( 'NONE',  ( 0.000000000000000000, 0.000000000000000000, 1.000000000000000000 ) ) ;
#72 = LOCAL_TIME ( 18, 17, 0.000000000000000000, #85 ) ;
#73 = EDGE_CURVE ( 'NONE', #174, #57, #110, .T. ) ;
#74 = ORIENTED_EDGE ( 'NONE', *, *, #61, .F. ) ;
#75 = CYLINDRICAL_SURFACE ( 'NONE', #178, 2.000000000000000000 ) ;
#76 = ORIENTED_EDGE ( 'NONE', *, *, #183, .T. ) ;
#77 = CARTESIAN_POINT ( 'NONE',  ( 0.000000000000000000, 0.000000000000000000, 0.000000000000000000 ) ) ;
#78 = ORIENTED_EDGE ( 'NONE', *, *, #195, .F. ) ;
#79 = PRODUCT_DEFINITION_SHAPE ( 'NONE', 'NONE',  #145 ) ;
#80 = ADVANCED_FACE ( 'NONE', ( #246 ), #30, .T. ) ;
#81 = LOCAL_TIME ( 18, 17, 0.000000000000000000, #109 ) ;
#82 = MECHANICAL_CONTEXT ( 'NONE', #179, 'mechanical' ) ;
#83 = EDGE_LOOP ( 'NONE', ( #171, #112 ) ) ;
#84 = CARTESIAN_POINT ( 'NONE',  ( 0.000000000000000000, 0.000000000000000000, 125.0000000000000000 ) ) ;
#85 = COORDINATED_UNIVERSAL_TIME_OFFSET ( 1, 0, .AHEAD. ) ;
#86 = APPLICATION_PROTOCOL_DEFINITION ( 'international standard', 'config_control_design', 1994, #179 ) ;
#87 = DIRECTION ( 'NONE',  ( 1.000000000000000000, 0.000000000000000000, -0.000000000000000000 ) ) ;
#88 = PERSON_AND_ORGANIZATION ( #92, #37 ) ;
#89 = DIRECTION ( 'NONE',  ( -0.000000000000000000, -0.000000000000000000, -1.000000000000000000 ) ) ;
#90 = CARTESIAN_POINT ( 'NONE',  ( -0.8499999999999999778, 0.000000000000000000, 125.0000000000000000 ) ) ;
#91 = FACE_OUTER_BOUND ( 'NONE', #127, .T. ) ;
#92 = PERSON ( 'NEURÈENÝ', 'NEURÈENÝ', 'NEURÈENÝ', ('NEURÈENÝ'), ('NEURÈENÝ'), ('NEURÈENÝ') ) ;
#93 = AXIS2_PLACEMENT_3D ( 'NONE', #142, #9, #134 ) ;
#94 = CIRCLE ( 'NONE', #118, 0.8499999999999999778 ) ;
#95 = PERSON_AND_ORGANIZATION ( #92, #37 ) ;
#96 = APPROVAL_DATE_TIME ( #158, #148 ) ;
#97 = VERTEX_POINT ( 'NONE', #32 ) ;
#98 = CIRCLE ( 'NONE', #213, 2.000000000000000000 ) ;
#99 = CARTESIAN_POINT ( 'NONE',  ( 0.8499999999999999778, 1.040949779275250140E-16, 1.500000000000000000 ) ) ;
#100 = EDGE_CURVE ( 'NONE', #59, #3, #212, .T. ) ;
#101 = AXIS2_PLACEMENT_3D ( 'NONE', #63, #132, #47 ) ;
#102 = DIRECTION ( 'NONE',  ( 0.000000000000000000, 0.000000000000000000, 1.000000000000000000 ) ) ;
#103 = DIRECTION ( 'NONE',  ( -0.000000000000000000, -0.000000000000000000, -1.000000000000000000 ) ) ;
#104 = CC_DESIGN_PERSON_AND_ORGANIZATION_ASSIGNMENT ( #126, #168, ( #4 ) ) ;
#105 = LINE ( 'NONE', #122, #36 ) ;
#106 = DIRECTION ( 'NONE',  ( -0.000000000000000000, -0.000000000000000000, -1.000000000000000000 ) ) ;
#107 = ORIENTED_EDGE ( 'NONE', *, *, #155, .T. ) ;
#108 = CIRCLE ( 'NONE', #101, 2.000000000000000000 ) ;
#109 = COORDINATED_UNIVERSAL_TIME_OFFSET ( 1, 0, .AHEAD. ) ;
#110 = CIRCLE ( 'NONE', #125, 2.000000000000000000 ) ;
#111 = ORIENTED_EDGE ( 'NONE', *, *, #100, .F. ) ;
#112 = ORIENTED_EDGE ( 'NONE', *, *, #227, .T. ) ;
#113 = EDGE_CURVE ( 'NONE', #131, #97, #242, .T. ) ;
#114 = ADVANCED_FACE ( 'NONE', ( #241 ), #120, .T. ) ;
#115 = LINE ( 'NONE', #164, #144 ) ;
#116 = DATE_TIME_ROLE ( 'classification_date' ) ;
#117 = CARTESIAN_POINT ( 'NONE',  ( 2.000000000000000000, 2.449293598294706414E-16, 1.500000000000000000 ) ) ;
#118 = AXIS2_PLACEMENT_3D ( 'NONE', #139, #240, #181 ) ;
#119 =( NAMED_UNIT ( * ) PLANE_ANGLE_UNIT ( ) SI_UNIT ( $, .RADIAN. ) );
#120 = CYLINDRICAL_SURFACE ( 'NONE', #138, 2.000000000000000000 ) ;
#121 = CARTESIAN_POINT ( 'NONE',  ( 0.000000000000000000, 0.000000000000000000, 125.0000000000000000 ) ) ;
#122 = CARTESIAN_POINT ( 'NONE',  ( 2.000000000000000000, 2.449293598294706414E-16, 1.500000000000000000 ) ) ;
#123 = CC_DESIGN_DATE_AND_TIME_ASSIGNMENT ( #199, #31, ( #145 ) ) ;
#124 = PERSON_AND_ORGANIZATION ( #92, #37 ) ;
#125 = AXIS2_PLACEMENT_3D ( 'NONE', #135, #102, #160 ) ;
#126 = PERSON_AND_ORGANIZATION ( #92, #37 ) ;
#127 = EDGE_LOOP ( 'NONE', ( #128, #150 ) ) ;
#128 = ORIENTED_EDGE ( 'NONE', *, *, #73, .F. ) ;
#129 = ORIENTED_EDGE ( 'NONE', *, *, #69, .T. ) ;
#130 = ORIENTED_EDGE ( 'NONE', *, *, #113, .T. ) ;
#131 = VERTEX_POINT ( 'NONE', #90 ) ;
#132 = DIRECTION ( 'NONE',  ( 0.000000000000000000, 0.000000000000000000, 1.000000000000000000 ) ) ;
#133 = ORIENTED_EDGE ( 'NONE', *, *, #23, .F. ) ;
#134 = DIRECTION ( 'NONE',  ( 1.000000000000000000, 0.000000000000000000, 0.000000000000000000 ) ) ;
#135 = CARTESIAN_POINT ( 'NONE',  ( 0.000000000000000000, 0.000000000000000000, 0.000000000000000000 ) ) ;
#136 = APPROVAL_STATUS ( 'not_yet_approved' ) ;
#137 = DIRECTION ( 'NONE',  ( -1.000000000000000000, 0.000000000000000000, 0.000000000000000000 ) ) ;
#138 = AXIS2_PLACEMENT_3D ( 'NONE', #65, #106, #137 ) ;
#139 = CARTESIAN_POINT ( 'NONE',  ( 0.000000000000000000, 0.000000000000000000, 1.500000000000000000 ) ) ;
#140 = CARTESIAN_POINT ( 'NONE',  ( 0.000000000000000000, 0.000000000000000000, 125.0000000000000000 ) ) ;
#141 = FACE_OUTER_BOUND ( 'NONE', #58, .T. ) ;
#142 = CARTESIAN_POINT ( 'NONE',  ( 0.000000000000000000, 0.000000000000000000, 0.000000000000000000 ) ) ;
#143 = DIRECTION ( 'NONE',  ( 0.000000000000000000, 0.000000000000000000, 1.000000000000000000 ) ) ;
#144 = VECTOR ( 'NONE', #184, 1000.000000000000000 ) ;
#145 = PRODUCT_DEFINITION ( 'NEZNÁMÝ', '', #4, #163 ) ;
#146 =( GEOMETRIC_REPRESENTATION_CONTEXT ( 3 ) GLOBAL_UNCERTAINTY_ASSIGNED_CONTEXT ( ( #247 ) ) GLOBAL_UNIT_ASSIGNED_CONTEXT ( ( #156, #119, #162 ) ) REPRESENTATION_CONTEXT ( 'NONE', 'WORKASPACE' ) );
#147 = PRODUCT_RELATED_PRODUCT_CATEGORY ( 'detail', '', ( #239 ) ) ;
#148 = APPROVAL ( #180, 'NEURÈENÝ' ) ;
#149 = CARTESIAN_POINT ( 'NONE',  ( 0.000000000000000000, 0.000000000000000000, 0.000000000000000000 ) ) ;
#150 = ORIENTED_EDGE ( 'NONE', *, *, #210, .F. ) ;
#151 = DIRECTION ( 'NONE',  ( -1.000000000000000000, 0.000000000000000000, 0.000000000000000000 ) ) ;
#152 = DIRECTION ( 'NONE',  ( 0.000000000000000000, 0.000000000000000000, 1.000000000000000000 ) ) ;
#153 = EDGE_LOOP ( 'NONE', ( #74, #107, #217, #78 ) ) ;
#154 = ADVANCED_FACE ( 'NONE', ( #67 ), #203, .T. ) ;
#155 = EDGE_CURVE ( 'NONE', #97, #59, #245, .T. ) ;
#156 =( LENGTH_UNIT ( ) NAMED_UNIT ( * ) SI_UNIT ( .MILLI., .METRE. ) );
#157 = DIRECTION ( 'NONE',  ( 0.000000000000000000, 0.000000000000000000, 1.000000000000000000 ) ) ;
#158 = DATE_AND_TIME ( #190, #72 ) ;
#159 = CALENDAR_DATE ( 2023, 13, 2 ) ;
#160 = DIRECTION ( 'NONE',  ( 1.000000000000000000, 0.000000000000000000, 0.000000000000000000 ) ) ;
#161 = DIRECTION ( 'NONE',  ( -1.000000000000000000, 0.000000000000000000, 0.000000000000000000 ) ) ;
#162 =( NAMED_UNIT ( * ) SI_UNIT ( $, .STERADIAN. ) SOLID_ANGLE_UNIT ( ) );
#163 = DESIGN_CONTEXT ( 'detailed design', #222, 'design' ) ;
#164 = CARTESIAN_POINT ( 'NONE',  ( -2.000000000000000000, 0.000000000000000000, 1.500000000000000000 ) ) ;
#165 = DIRECTION ( 'NONE',  ( 0.000000000000000000, 0.000000000000000000, 1.000000000000000000 ) ) ;
#166 = AXIS2_PLACEMENT_3D ( 'NONE', #211, #71, #250 ) ;
#167 = CARTESIAN_POINT ( 'NONE',  ( -0.8499999999999999778, 0.000000000000000000, 125.0000000000000000 ) ) ;
#168 = PERSON_AND_ORGANIZATION_ROLE ( 'design_supplier' ) ;
#169 = CC_DESIGN_PERSON_AND_ORGANIZATION_ASSIGNMENT ( #27, #29, ( #145 ) ) ;
#170 = DIRECTION ( 'NONE',  ( -0.000000000000000000, -0.000000000000000000, -1.000000000000000000 ) ) ;
#171 = ORIENTED_EDGE ( 'NONE', *, *, #23, .T. ) ;
#172 = ORIENTED_EDGE ( 'NONE', *, *, #155, .F. ) ;
#173 = ADVANCED_FACE ( 'NONE', ( #141 ), #182, .T. ) ;
#174 = VERTEX_POINT ( 'NONE', #34 ) ;
#175 = DIRECTION ( 'NONE',  ( 0.000000000000000000, 0.000000000000000000, 1.000000000000000000 ) ) ;
#176 = LOCAL_TIME ( 18, 17, 0.000000000000000000, #254 ) ;
#177 = CARTESIAN_POINT ( 'NONE',  ( -2.000000000000000000, 0.000000000000000000, 1.500000000000000000 ) ) ;
#178 = AXIS2_PLACEMENT_3D ( 'NONE', #235, #170, #151 ) ;
#179 = APPLICATION_CONTEXT ( 'configuration controlled 3d designs of mechanical parts and assemblies' ) ;
#180 = APPROVAL_STATUS ( 'not_yet_approved' ) ;
#181 = DIRECTION ( 'NONE',  ( 1.000000000000000000, 0.000000000000000000, 0.000000000000000000 ) ) ;
#182 = CYLINDRICAL_SURFACE ( 'NONE', #231, 0.8499999999999999778 ) ;
#183 = EDGE_CURVE ( 'NONE', #236, #57, #105, .T. ) ;
#184 = DIRECTION ( 'NONE',  ( -0.000000000000000000, -0.000000000000000000, -1.000000000000000000 ) ) ;
#185 = FACE_OUTER_BOUND ( 'NONE', #83, .T. ) ;
#186 = CC_DESIGN_APPROVAL ( #16, ( #145 ) ) ;
#187 = LINE ( 'NONE', #167, #12 ) ;
#188 = ADVANCED_FACE ( 'NONE', ( #91 ), #52, .F. ) ;
#189 = VECTOR ( 'NONE', #103, 1000.000000000000000 ) ;
#190 = CALENDAR_DATE ( 2023, 13, 2 ) ;
#191 = LOCAL_TIME ( 18, 17, 0.000000000000000000, #13 ) ;
#192 = DIRECTION ( 'NONE',  ( 1.000000000000000000, 0.000000000000000000, 0.000000000000000000 ) ) ;
#193 = AXIS2_PLACEMENT_3D ( 'NONE', #121, #226, #48 ) ;
#194 = PERSON_AND_ORGANIZATION ( #92, #37 ) ;
#195 = EDGE_CURVE ( 'NONE', #131, #3, #187, .T. ) ;
#196 = CC_DESIGN_DATE_AND_TIME_ASSIGNMENT ( #35, #116, ( #10 ) ) ;
#197 = EDGE_LOOP ( 'NONE', ( #22, #111 ) ) ;
#198 = PERSON_AND_ORGANIZATION_ROLE ( 'design_owner' ) ;
#199 = DATE_AND_TIME ( #244, #191 ) ;
#200 = ADVANCED_FACE ( 'NONE', ( #206, #185 ), #56, .T. ) ;
#201 = APPLICATION_PROTOCOL_DEFINITION ( 'international standard', 'config_control_design', 1994, #222 ) ;
#202 = ADVANCED_FACE ( 'NONE', ( #24 ), #75, .T. ) ;
#203 = CYLINDRICAL_SURFACE ( 'NONE', #66, 0.8499999999999999778 ) ;
#204 = CALENDAR_DATE ( 2023, 13, 2 ) ;
#205 = DIRECTION ( 'NONE',  ( -0.000000000000000000, -0.000000000000000000, -1.000000000000000000 ) ) ;
#206 = FACE_BOUND ( 'NONE', #197, .T. ) ;
#207 = PERSON_AND_ORGANIZATION_ROLE ( 'classification_officer' ) ;
#208 = CC_DESIGN_SECURITY_CLASSIFICATION ( #10, ( #4 ) ) ;
#209 = APPROVAL_ROLE ( '' ) ;
#210 = EDGE_CURVE ( 'NONE', #57, #174, #98, .T. ) ;
#211 = CARTESIAN_POINT ( 'NONE',  ( 0.000000000000000000, 0.000000000000000000, 1.500000000000000000 ) ) ;
#212 = CIRCLE ( 'NONE', #252, 0.8499999999999999778 ) ;
#213 = AXIS2_PLACEMENT_3D ( 'NONE', #77, #175, #8 ) ;
#214 = EDGE_LOOP ( 'NONE', ( #130, #215 ) ) ;
#215 = ORIENTED_EDGE ( 'NONE', *, *, #61, .T. ) ;
#216 = ORIENTED_EDGE ( 'NONE', *, *, #227, .F. ) ;
#217 = ORIENTED_EDGE ( 'NONE', *, *, #100, .T. ) ;
#218 = AXIS2_PLACEMENT_3D ( 'NONE', #219, #60, #192 ) ;
#219 = CARTESIAN_POINT ( 'NONE',  ( 0.000000000000000000, 0.000000000000000000, 1.500000000000000000 ) ) ;
#220 = DIRECTION ( 'NONE',  ( 1.000000000000000000, 0.000000000000000000, 0.000000000000000000 ) ) ;
#221 = APPROVAL_ROLE ( '' ) ;
#222 = APPLICATION_CONTEXT ( 'configuration controlled 3d designs of mechanical parts and assemblies' ) ;
#223 = DATE_AND_TIME ( #159, #49 ) ;
#224 = DIRECTION ( 'NONE',  ( -1.000000000000000000, 0.000000000000000000, 0.000000000000000000 ) ) ;
#225 = PERSON_AND_ORGANIZATION ( #92, #37 ) ;
#226 = DIRECTION ( 'NONE',  ( 0.000000000000000000, 0.000000000000000000, 1.000000000000000000 ) ) ;
#227 = EDGE_CURVE ( 'NONE', #236, #251, #108, .T. ) ;
#228 = CALENDAR_DATE ( 2023, 13, 2 ) ;
#229 = DIRECTION ( 'NONE',  ( -0.000000000000000000, -0.000000000000000000, -1.000000000000000000 ) ) ;
#230 = APPROVAL_PERSON_ORGANIZATION ( #194, #148, #41 ) ;
#231 = AXIS2_PLACEMENT_3D ( 'NONE', #14, #89, #161 ) ;
#232 = APPROVAL ( #33, 'NEURÈENÝ' ) ;
#233 = ORIENTED_EDGE ( 'NONE', *, *, #183, .F. ) ;
#234 = ORIENTED_EDGE ( 'NONE', *, *, #69, .F. ) ;
#235 = CARTESIAN_POINT ( 'NONE',  ( 0.000000000000000000, 0.000000000000000000, 1.500000000000000000 ) ) ;
#236 = VERTEX_POINT ( 'NONE', #117 ) ;
#237 = APPROVAL_PERSON_ORGANIZATION ( #28, #16, #221 ) ;
#238 = CC_DESIGN_PERSON_AND_ORGANIZATION_ASSIGNMENT ( #225, #198, ( #239 ) ) ;
#239 = PRODUCT ( '5446', '5446', '', ( #82 ) ) ;
#240 = DIRECTION ( 'NONE',  ( 0.000000000000000000, 0.000000000000000000, 1.000000000000000000 ) ) ;
#241 = FACE_OUTER_BOUND ( 'NONE', #26, .T. ) ;
#242 = CIRCLE ( 'NONE', #193, 0.8499999999999999778 ) ;
#243 = DIRECTION ( 'NONE',  ( 1.000000000000000000, 0.000000000000000000, 0.000000000000000000 ) ) ;
#244 = CALENDAR_DATE ( 2023, 13, 2 ) ;
#245 = LINE ( 'NONE', #45, #189 ) ;
#246 = FACE_OUTER_BOUND ( 'NONE', #214, .T. ) ;
#247 = UNCERTAINTY_MEASURE_WITH_UNIT (LENGTH_MEASURE( 1.000000000000000082E-05 ), #156, 'distance_accuracy_value', 'NONE');
#248 = CC_DESIGN_APPROVAL ( #148, ( #10 ) ) ;
#249 = AXIS2_PLACEMENT_3D ( 'NONE', #149, #165, #19 ) ;
#250 = DIRECTION ( 'NONE',  ( 1.000000000000000000, 0.000000000000000000, -0.000000000000000000 ) ) ;
#251 = VERTEX_POINT ( 'NONE', #177 ) ;
#252 = AXIS2_PLACEMENT_3D ( 'NONE', #68, #143, #243 ) ;
#253 = EDGE_CURVE ( 'NONE', #3, #59, #94, .T. ) ;
#254 = COORDINATED_UNIVERSAL_TIME_OFFSET ( 1, 0, .AHEAD. ) ;
#255 = ORIENTED_EDGE ( 'NONE', *, *, #195, .T. ) ;
ENDSEC;
END-ISO-10303-21;
