ISO-10303-21;
HEADER;
FILE_DESCRIPTION (( 'STEP AP203' ),
    '1' );
FILE_NAME ('0db6.STEP',
    '2023-02-13T13:09:52',
    ( '' ),
    ( '' ),
    'SwSTEP 2.0',
    'SolidWorks 2019',
    '' );
FILE_SCHEMA (( 'CONFIG_CONTROL_DESIGN' ));
ENDSEC;

DATA;
#1 = DIRECTION ( 'NONE',  ( 1.000000000000000000, 0.000000000000000000, -0.000000000000000000 ) ) ;
#2 = APPROVAL_DATE_TIME ( #122, #60 ) ;
#3 = AXIS2_PLACEMENT_3D ( 'NONE', #214, #170, #155 ) ;
#4 = DIRECTION ( 'NONE',  ( 1.000000000000000000, 0.000000000000000000, 0.000000000000000000 ) ) ;
#5 = APPROVAL_PERSON_ORGANIZATION ( #96, #159, #53 ) ;
#6 = DATE_AND_TIME ( #215, #236 ) ;
#7 = CARTESIAN_POINT ( 'NONE',  ( 0.000000000000000000, 0.000000000000000000, 0.000000000000000000 ) ) ;
#8 = ORIENTED_EDGE ( 'NONE', *, *, #23, .T. ) ;
#9 = ORIENTED_EDGE ( 'NONE', *, *, #124, .T. ) ;
#10 = CC_DESIGN_DATE_AND_TIME_ASSIGNMENT ( #98, #157, ( #243 ) ) ;
#11 = DIRECTION ( 'NONE',  ( 0.000000000000000000, 0.000000000000000000, 1.000000000000000000 ) ) ;
#12 =( NAMED_UNIT ( * ) SI_UNIT ( $, .STERADIAN. ) SOLID_ANGLE_UNIT ( ) );
#13 = CIRCLE ( 'NONE', #209, 5.000000000000000888 ) ;
#14 = EDGE_LOOP ( 'NONE', ( #80, #125 ) ) ;
#15 = CARTESIAN_POINT ( 'NONE',  ( 0.000000000000000000, 0.000000000000000000, 6.500000000000000000 ) ) ;
#16 = FACE_OUTER_BOUND ( 'NONE', #107, .T. ) ;
#17 = ORIENTED_EDGE ( 'NONE', *, *, #247, .T. ) ;
#18 = EDGE_CURVE ( 'NONE', #164, #76, #168, .T. ) ;
#19 = APPLICATION_PROTOCOL_DEFINITION ( 'international standard', 'config_control_design', 1994, #102 ) ;
#20 = DIRECTION ( 'NONE',  ( 1.000000000000000000, 0.000000000000000000, 0.000000000000000000 ) ) ;
#21 = PERSON_AND_ORGANIZATION_ROLE ( 'design_owner' ) ;
#22 = ORIENTED_EDGE ( 'NONE', *, *, #185, .F. ) ;
#23 = EDGE_CURVE ( 'NONE', #76, #222, #230, .T. ) ;
#24 = CARTESIAN_POINT ( 'NONE',  ( 0.000000000000000000, 0.000000000000000000, 250.0000000000000000 ) ) ;
#25 = DIRECTION ( 'NONE',  ( -0.000000000000000000, -0.000000000000000000, -1.000000000000000000 ) ) ;
#26 = PERSON_AND_ORGANIZATION ( #83, #198 ) ;
#27 = APPROVAL_STATUS ( 'not_yet_approved' ) ;
#28 = ADVANCED_FACE ( 'NONE', ( #52 ), #110, .T. ) ;
#29 = VERTEX_POINT ( 'NONE', #37 ) ;
#30 = ORIENTED_EDGE ( 'NONE', *, *, #152, .F. ) ;
#31 = ORIENTED_EDGE ( 'NONE', *, *, #174, .T. ) ;
#32 = CARTESIAN_POINT ( 'NONE',  ( 0.000000000000000000, 0.000000000000000000, 0.000000000000000000 ) ) ;
#33 = AXIS2_PLACEMENT_3D ( 'NONE', #167, #210, #66 ) ;
#34 = DIRECTION ( 'NONE',  ( -0.000000000000000000, -0.000000000000000000, -1.000000000000000000 ) ) ;
#35 = CARTESIAN_POINT ( 'NONE',  ( 8.000000000000000000, 9.797174393178823685E-16, 6.500000000000000000 ) ) ;
#36 = CARTESIAN_POINT ( 'NONE',  ( 0.000000000000000000, 0.000000000000000000, 250.0000000000000000 ) ) ;
#37 = CARTESIAN_POINT ( 'NONE',  ( 8.000000000000000000, 9.797174393178823685E-16, 6.500000000000000000 ) ) ;
#38 = DIRECTION ( 'NONE',  ( -0.000000000000000000, -0.000000000000000000, -1.000000000000000000 ) ) ;
#39 = ADVANCED_FACE ( 'NONE', ( #131 ), #233, .T. ) ;
#40 = PERSON_AND_ORGANIZATION_ROLE ( 'design_supplier' ) ;
#41 = APPROVAL_DATE_TIME ( #217, #159 ) ;
#42 = ORIENTED_EDGE ( 'NONE', *, *, #226, .F. ) ;
#43 = APPROVAL_PERSON_ORGANIZATION ( #175, #60, #73 ) ;
#44 = APPROVAL ( #200, 'NEURÈENÝ' ) ;
#45 =( LENGTH_UNIT ( ) NAMED_UNIT ( * ) SI_UNIT ( .MILLI., .METRE. ) );
#46 = PRODUCT_DEFINITION_FORMATION_WITH_SPECIFIED_SOURCE ( 'LIBOVOLNÝ', '', #126, .NOT_KNOWN. ) ;
#47 = CYLINDRICAL_SURFACE ( 'NONE', #212, 8.000000000000000000 ) ;
#48 = DIRECTION ( 'NONE',  ( 0.000000000000000000, 0.000000000000000000, 1.000000000000000000 ) ) ;
#49 = CARTESIAN_POINT ( 'NONE',  ( -8.000000000000000000, 0.000000000000000000, 6.500000000000000000 ) ) ;
#50 = CIRCLE ( 'NONE', #63, 8.000000000000000000 ) ;
#51 = EDGE_CURVE ( 'NONE', #64, #164, #235, .T. ) ;
#52 = FACE_OUTER_BOUND ( 'NONE', #147, .T. ) ;
#53 = APPROVAL_ROLE ( '' ) ;
#54 = EDGE_LOOP ( 'NONE', ( #30, #99 ) ) ;
#55 = AXIS2_PLACEMENT_3D ( 'NONE', #87, #113, #225 ) ;
#56 = CALENDAR_DATE ( 2023, 13, 2 ) ;
#57 = DIRECTION ( 'NONE',  ( 0.000000000000000000, 0.000000000000000000, 1.000000000000000000 ) ) ;
#58 = DATE_AND_TIME ( #237, #205 ) ;
#59 = CALENDAR_DATE ( 2023, 13, 2 ) ;
#60 = APPROVAL ( #253, 'NEURÈENÝ' ) ;
#61 = FACE_BOUND ( 'NONE', #54, .T. ) ;
#62 = ORIENTED_EDGE ( 'NONE', *, *, #247, .F. ) ;
#63 = AXIS2_PLACEMENT_3D ( 'NONE', #32, #11, #129 ) ;
#64 = VERTEX_POINT ( 'NONE', #249 ) ;
#65 = CLOSED_SHELL ( 'NONE', ( #39, #72, #109, #190, #93, #28, #162 ) ) ;
#66 = DIRECTION ( 'NONE',  ( 1.000000000000000000, 0.000000000000000000, 0.000000000000000000 ) ) ;
#67 = ORIENTED_EDGE ( 'NONE', *, *, #18, .T. ) ;
#68 = DIRECTION ( 'NONE',  ( 1.000000000000000000, 0.000000000000000000, 0.000000000000000000 ) ) ;
#69 =( NAMED_UNIT ( * ) PLANE_ANGLE_UNIT ( ) SI_UNIT ( $, .RADIAN. ) );
#70 = CIRCLE ( 'NONE', #133, 5.000000000000000888 ) ;
#71 = VECTOR ( 'NONE', #223, 1000.000000000000000 ) ;
#72 = ADVANCED_FACE ( 'NONE', ( #16 ), #47, .T. ) ;
#73 = APPROVAL_ROLE ( '' ) ;
#74 = DIRECTION ( 'NONE',  ( -1.000000000000000000, 0.000000000000000000, 0.000000000000000000 ) ) ;
#75 = DIRECTION ( 'NONE',  ( 0.000000000000000000, 0.000000000000000000, 1.000000000000000000 ) ) ;
#76 = VERTEX_POINT ( 'NONE', #211 ) ;
#77 = CC_DESIGN_PERSON_AND_ORGANIZATION_ASSIGNMENT ( #238, #79, ( #243 ) ) ;
#78 = DIRECTION ( 'NONE',  ( 0.000000000000000000, 0.000000000000000000, 1.000000000000000000 ) ) ;
#79 = PERSON_AND_ORGANIZATION_ROLE ( 'creator' ) ;
#80 = ORIENTED_EDGE ( 'NONE', *, *, #51, .T. ) ;
#81 = CARTESIAN_POINT ( 'NONE',  ( 0.000000000000000000, 0.000000000000000000, 6.500000000000000000 ) ) ;
#82 = LOCAL_TIME ( 14, 9, 52.00000000000000000, #156 ) ;
#83 = PERSON ( 'NEURÈENÝ', 'NEURÈENÝ', 'NEURÈENÝ', ('NEURÈENÝ'), ('NEURÈENÝ'), ('NEURÈENÝ') ) ;
#84 = VERTEX_POINT ( 'NONE', #49 ) ;
#85 = AXIS2_PLACEMENT_3D ( 'NONE', #240, #57, #119 ) ;
#86 = PLANE ( 'NONE',  #3 ) ;
#87 = CARTESIAN_POINT ( 'NONE',  ( 0.000000000000000000, 0.000000000000000000, 6.500000000000000000 ) ) ;
#88 = AXIS2_PLACEMENT_3D ( 'NONE', #24, #149, #128 ) ;
#89 = LOCAL_TIME ( 14, 9, 52.00000000000000000, #135 ) ;
#90 = SECURITY_CLASSIFICATION ( '', '', #178 ) ;
#91 = APPLICATION_PROTOCOL_DEFINITION ( 'international standard', 'config_control_design', 1994, #188 ) ;
#92 = CARTESIAN_POINT ( 'NONE',  ( 0.000000000000000000, 0.000000000000000000, 250.0000000000000000 ) ) ;
#93 = ADVANCED_FACE ( 'NONE', ( #130 ), #86, .F. ) ;
#94 = PERSON_AND_ORGANIZATION ( #83, #198 ) ;
#95 = FACE_OUTER_BOUND ( 'NONE', #14, .T. ) ;
#96 = PERSON_AND_ORGANIZATION ( #83, #198 ) ;
#97 = VECTOR ( 'NONE', #25, 1000.000000000000000 ) ;
#98 = DATE_AND_TIME ( #56, #250 ) ;
#99 = ORIENTED_EDGE ( 'NONE', *, *, #23, .F. ) ;
#100 = APPROVAL_ROLE ( '' ) ;
#101 = ORIENTED_EDGE ( 'NONE', *, *, #218, .F. ) ;
#102 = APPLICATION_CONTEXT ( 'configuration controlled 3d designs of mechanical parts and assemblies' ) ;
#103 = AXIS2_PLACEMENT_3D ( 'NONE', #195, #75, #20 ) ;
#104 = EDGE_CURVE ( 'NONE', #164, #64, #13, .T. ) ;
#105 = EDGE_LOOP ( 'NONE', ( #62, #42, #9, #31 ) ) ;
#106 = LINE ( 'NONE', #108, #71 ) ;
#107 = EDGE_LOOP ( 'NONE', ( #22, #17, #197, #144 ) ) ;
#108 = CARTESIAN_POINT ( 'NONE',  ( -5.000000000000000888, 0.000000000000000000, 250.0000000000000000 ) ) ;
#109 = ADVANCED_FACE ( 'NONE', ( #193 ), #176, .T. ) ;
#110 = CYLINDRICAL_SURFACE ( 'NONE', #88, 5.000000000000000888 ) ;
#111 = CC_DESIGN_SECURITY_CLASSIFICATION ( #90, ( #46 ) ) ;
#112 = DIRECTION ( 'NONE',  ( -0.000000000000000000, -0.000000000000000000, -1.000000000000000000 ) ) ;
#113 = DIRECTION ( 'NONE',  ( 0.000000000000000000, 0.000000000000000000, 1.000000000000000000 ) ) ;
#114 = DIRECTION ( 'NONE',  ( 1.000000000000000000, 0.000000000000000000, 0.000000000000000000 ) ) ;
#115 = AXIS2_PLACEMENT_3D ( 'NONE', #92, #171, #136 ) ;
#116 = DIRECTION ( 'NONE',  ( -0.000000000000000000, -0.000000000000000000, -1.000000000000000000 ) ) ;
#117 = COORDINATED_UNIVERSAL_TIME_OFFSET ( 1, 0, .AHEAD. ) ;
#118 =( GEOMETRIC_REPRESENTATION_CONTEXT ( 3 ) GLOBAL_UNCERTAINTY_ASSIGNED_CONTEXT ( ( #172 ) ) GLOBAL_UNIT_ASSIGNED_CONTEXT ( ( #45, #69, #12 ) ) REPRESENTATION_CONTEXT ( 'NONE', 'WORKASPACE' ) );
#119 = DIRECTION ( 'NONE',  ( 1.000000000000000000, 0.000000000000000000, 0.000000000000000000 ) ) ;
#120 = CIRCLE ( 'NONE', #85, 8.000000000000000000 ) ;
#121 = VERTEX_POINT ( 'NONE', #153 ) ;
#122 = DATE_AND_TIME ( #234, #82 ) ;
#123 = EDGE_LOOP ( 'NONE', ( #244, #67, #8, #241 ) ) ;
#124 = EDGE_CURVE ( 'NONE', #84, #121, #231, .T. ) ;
#125 = ORIENTED_EDGE ( 'NONE', *, *, #104, .T. ) ;
#126 = PRODUCT ( '0db6', '0db6', '', ( #151 ) ) ;
#127 = CC_DESIGN_DATE_AND_TIME_ASSIGNMENT ( #6, #160, ( #90 ) ) ;
#128 = DIRECTION ( 'NONE',  ( -1.000000000000000000, 0.000000000000000000, 0.000000000000000000 ) ) ;
#129 = DIRECTION ( 'NONE',  ( 1.000000000000000000, 0.000000000000000000, 0.000000000000000000 ) ) ;
#130 = FACE_OUTER_BOUND ( 'NONE', #227, .T. ) ;
#131 = FACE_OUTER_BOUND ( 'NONE', #123, .T. ) ;
#132 = MANIFOLD_SOLID_BREP ( 'Pøidat vysunutím3', #65 ) ;
#133 = AXIS2_PLACEMENT_3D ( 'NONE', #81, #221, #4 ) ;
#134 = ORIENTED_EDGE ( 'NONE', *, *, #174, .F. ) ;
#135 = COORDINATED_UNIVERSAL_TIME_OFFSET ( 1, 0, .AHEAD. ) ;
#136 = DIRECTION ( 'NONE',  ( -1.000000000000000000, 0.000000000000000000, 0.000000000000000000 ) ) ;
#137 = APPROVAL_DATE_TIME ( #58, #44 ) ;
#138 = AXIS2_PLACEMENT_3D ( 'NONE', #7, #78, #219 ) ;
#139 = CC_DESIGN_PERSON_AND_ORGANIZATION_ASSIGNMENT ( #140, #232, ( #90 ) ) ;
#140 = PERSON_AND_ORGANIZATION ( #83, #198 ) ;
#141 = COORDINATED_UNIVERSAL_TIME_OFFSET ( 1, 0, .AHEAD. ) ;
#142 = CC_DESIGN_APPROVAL ( #60, ( #243 ) ) ;
#143 = CC_DESIGN_PERSON_AND_ORGANIZATION_ASSIGNMENT ( #213, #21, ( #126 ) ) ;
#144 = ORIENTED_EDGE ( 'NONE', *, *, #124, .F. ) ;
#145 = LINE ( 'NONE', #35, #229 ) ;
#146 = ORIENTED_EDGE ( 'NONE', *, *, #199, .T. ) ;
#147 = EDGE_LOOP ( 'NONE', ( #186, #203, #146, #208 ) ) ;
#148 = CARTESIAN_POINT ( 'NONE',  ( 8.000000000000000000, 9.797174393178823685E-16, 0.000000000000000000 ) ) ;
#149 = DIRECTION ( 'NONE',  ( -0.000000000000000000, -0.000000000000000000, -1.000000000000000000 ) ) ;
#150 = CARTESIAN_POINT ( 'NONE',  ( 0.000000000000000000, 0.000000000000000000, 6.500000000000000000 ) ) ;
#151 = MECHANICAL_CONTEXT ( 'NONE', #102, 'mechanical' ) ;
#152 = EDGE_CURVE ( 'NONE', #222, #76, #70, .T. ) ;
#153 = CARTESIAN_POINT ( 'NONE',  ( -8.000000000000000000, 0.000000000000000000, 0.000000000000000000 ) ) ;
#154 = PERSON_AND_ORGANIZATION_ROLE ( 'creator' ) ;
#155 = DIRECTION ( 'NONE',  ( 1.000000000000000000, 0.000000000000000000, -0.000000000000000000 ) ) ;
#156 = COORDINATED_UNIVERSAL_TIME_OFFSET ( 1, 0, .AHEAD. ) ;
#157 = DATE_TIME_ROLE ( 'creation_date' ) ;
#158 = CIRCLE ( 'NONE', #138, 8.000000000000000000 ) ;
#159 = APPROVAL ( #27, 'NEURÈENÝ' ) ;
#160 = DATE_TIME_ROLE ( 'classification_date' ) ;
#161 = CARTESIAN_POINT ( 'NONE',  ( 5.000000000000000888, 6.123233995736767268E-16, 250.0000000000000000 ) ) ;
#162 = ADVANCED_FACE ( 'NONE', ( #95 ), #201, .T. ) ;
#163 = AXIS2_PLACEMENT_3D ( 'NONE', #15, #48, #169 ) ;
#164 = VERTEX_POINT ( 'NONE', #161 ) ;
#165 = EDGE_LOOP ( 'NONE', ( #206, #220 ) ) ;
#166 = ADVANCED_BREP_SHAPE_REPRESENTATION ( '0db6', ( #132, #103 ), #118 ) ;
#167 = CARTESIAN_POINT ( 'NONE',  ( 0.000000000000000000, 0.000000000000000000, 6.500000000000000000 ) ) ;
#168 = LINE ( 'NONE', #246, #180 ) ;
#169 = DIRECTION ( 'NONE',  ( 1.000000000000000000, 0.000000000000000000, -0.000000000000000000 ) ) ;
#170 = DIRECTION ( 'NONE',  ( 0.000000000000000000, 0.000000000000000000, 1.000000000000000000 ) ) ;
#171 = DIRECTION ( 'NONE',  ( -0.000000000000000000, -0.000000000000000000, -1.000000000000000000 ) ) ;
#172 = UNCERTAINTY_MEASURE_WITH_UNIT (LENGTH_MEASURE( 1.000000000000000082E-05 ), #45, 'distance_accuracy_value', 'NONE');
#173 = APPROVAL_PERSON_ORGANIZATION ( #94, #44, #100 ) ;
#174 = EDGE_CURVE ( 'NONE', #121, #192, #158, .T. ) ;
#175 = PERSON_AND_ORGANIZATION ( #83, #198 ) ;
#176 = CYLINDRICAL_SURFACE ( 'NONE', #252, 8.000000000000000000 ) ;
#177 = DIRECTION ( 'NONE',  ( 0.000000000000000000, 0.000000000000000000, 1.000000000000000000 ) ) ;
#178 = SECURITY_CLASSIFICATION_LEVEL ( 'unclassified' ) ;
#179 = CARTESIAN_POINT ( 'NONE',  ( 0.000000000000000000, 0.000000000000000000, 250.0000000000000000 ) ) ;
#180 = VECTOR ( 'NONE', #116, 1000.000000000000000 ) ;
#181 = PERSON_AND_ORGANIZATION ( #83, #198 ) ;
#182 = DIRECTION ( 'NONE',  ( 0.000000000000000000, 0.000000000000000000, 1.000000000000000000 ) ) ;
#183 = COORDINATED_UNIVERSAL_TIME_OFFSET ( 1, 0, .AHEAD. ) ;
#184 = CARTESIAN_POINT ( 'NONE',  ( -8.000000000000000000, 0.000000000000000000, 6.500000000000000000 ) ) ;
#185 = EDGE_CURVE ( 'NONE', #29, #84, #120, .T. ) ;
#186 = ORIENTED_EDGE ( 'NONE', *, *, #18, .F. ) ;
#187 = PLANE ( 'NONE',  #163 ) ;
#188 = APPLICATION_CONTEXT ( 'configuration controlled 3d designs of mechanical parts and assemblies' ) ;
#189 = DESIGN_CONTEXT ( 'detailed design', #188, 'design' ) ;
#190 = ADVANCED_FACE ( 'NONE', ( #61, #204 ), #187, .T. ) ;
#191 = CC_DESIGN_APPROVAL ( #44, ( #46 ) ) ;
#192 = VERTEX_POINT ( 'NONE', #148 ) ;
#193 = FACE_OUTER_BOUND ( 'NONE', #105, .T. ) ;
#194 = CC_DESIGN_APPROVAL ( #159, ( #90 ) ) ;
#195 = CARTESIAN_POINT ( 'NONE',  ( 0.000000000000000000, 0.000000000000000000, 0.000000000000000000 ) ) ;
#196 = AXIS2_PLACEMENT_3D ( 'NONE', #255, #177, #68 ) ;
#197 = ORIENTED_EDGE ( 'NONE', *, *, #218, .T. ) ;
#198 = ORGANIZATION ( 'NEURÈENÝ', 'NEURÈENÝ', '' ) ;
#199 = EDGE_CURVE ( 'NONE', #64, #222, #106, .T. ) ;
#200 = APPROVAL_STATUS ( 'not_yet_approved' ) ;
#201 = PLANE ( 'NONE',  #245 ) ;
#202 = SHAPE_DEFINITION_REPRESENTATION ( #239, #166 ) ;
#203 = ORIENTED_EDGE ( 'NONE', *, *, #51, .F. ) ;
#204 = FACE_OUTER_BOUND ( 'NONE', #165, .T. ) ;
#205 = LOCAL_TIME ( 14, 9, 52.00000000000000000, #117 ) ;
#206 = ORIENTED_EDGE ( 'NONE', *, *, #226, .T. ) ;
#207 = CC_DESIGN_PERSON_AND_ORGANIZATION_ASSIGNMENT ( #26, #40, ( #46 ) ) ;
#208 = ORIENTED_EDGE ( 'NONE', *, *, #152, .T. ) ;
#209 = AXIS2_PLACEMENT_3D ( 'NONE', #36, #248, #114 ) ;
#210 = DIRECTION ( 'NONE',  ( 0.000000000000000000, 0.000000000000000000, 1.000000000000000000 ) ) ;
#211 = CARTESIAN_POINT ( 'NONE',  ( 5.000000000000000888, 6.123233995736767268E-16, 6.500000000000000000 ) ) ;
#212 = AXIS2_PLACEMENT_3D ( 'NONE', #150, #34, #228 ) ;
#213 = PERSON_AND_ORGANIZATION ( #83, #198 ) ;
#214 = CARTESIAN_POINT ( 'NONE',  ( 0.000000000000000000, 0.000000000000000000, 0.000000000000000000 ) ) ;
#215 = CALENDAR_DATE ( 2023, 13, 2 ) ;
#216 = CIRCLE ( 'NONE', #33, 8.000000000000000000 ) ;
#217 = DATE_AND_TIME ( #59, #89 ) ;
#218 = EDGE_CURVE ( 'NONE', #192, #121, #50, .T. ) ;
#219 = DIRECTION ( 'NONE',  ( 1.000000000000000000, 0.000000000000000000, 0.000000000000000000 ) ) ;
#220 = ORIENTED_EDGE ( 'NONE', *, *, #185, .T. ) ;
#221 = DIRECTION ( 'NONE',  ( 0.000000000000000000, 0.000000000000000000, 1.000000000000000000 ) ) ;
#222 = VERTEX_POINT ( 'NONE', #242 ) ;
#223 = DIRECTION ( 'NONE',  ( -0.000000000000000000, -0.000000000000000000, -1.000000000000000000 ) ) ;
#224 = PRODUCT_RELATED_PRODUCT_CATEGORY ( 'detail', '', ( #126 ) ) ;
#225 = DIRECTION ( 'NONE',  ( 1.000000000000000000, 0.000000000000000000, 0.000000000000000000 ) ) ;
#226 = EDGE_CURVE ( 'NONE', #84, #29, #216, .T. ) ;
#227 = EDGE_LOOP ( 'NONE', ( #134, #101 ) ) ;
#228 = DIRECTION ( 'NONE',  ( -1.000000000000000000, 0.000000000000000000, 0.000000000000000000 ) ) ;
#229 = VECTOR ( 'NONE', #112, 1000.000000000000000 ) ;
#230 = CIRCLE ( 'NONE', #55, 5.000000000000000888 ) ;
#231 = LINE ( 'NONE', #184, #97 ) ;
#232 = PERSON_AND_ORGANIZATION_ROLE ( 'classification_officer' ) ;
#233 = CYLINDRICAL_SURFACE ( 'NONE', #115, 5.000000000000000888 ) ;
#234 = CALENDAR_DATE ( 2023, 13, 2 ) ;
#235 = CIRCLE ( 'NONE', #196, 5.000000000000000888 ) ;
#236 = LOCAL_TIME ( 14, 9, 52.00000000000000000, #183 ) ;
#237 = CALENDAR_DATE ( 2023, 13, 2 ) ;
#238 = PERSON_AND_ORGANIZATION ( #83, #198 ) ;
#239 = PRODUCT_DEFINITION_SHAPE ( 'NONE', 'NONE',  #243 ) ;
#240 = CARTESIAN_POINT ( 'NONE',  ( 0.000000000000000000, 0.000000000000000000, 6.500000000000000000 ) ) ;
#241 = ORIENTED_EDGE ( 'NONE', *, *, #199, .F. ) ;
#242 = CARTESIAN_POINT ( 'NONE',  ( -5.000000000000000888, 0.000000000000000000, 6.500000000000000000 ) ) ;
#243 = PRODUCT_DEFINITION ( 'NEZNÁMÝ', '', #46, #189 ) ;
#244 = ORIENTED_EDGE ( 'NONE', *, *, #104, .F. ) ;
#245 = AXIS2_PLACEMENT_3D ( 'NONE', #179, #182, #1 ) ;
#246 = CARTESIAN_POINT ( 'NONE',  ( 5.000000000000000888, 6.123233995736767268E-16, 250.0000000000000000 ) ) ;
#247 = EDGE_CURVE ( 'NONE', #29, #192, #145, .T. ) ;
#248 = DIRECTION ( 'NONE',  ( 0.000000000000000000, 0.000000000000000000, 1.000000000000000000 ) ) ;
#249 = CARTESIAN_POINT ( 'NONE',  ( -5.000000000000000888, 0.000000000000000000, 250.0000000000000000 ) ) ;
#250 = LOCAL_TIME ( 14, 9, 52.00000000000000000, #141 ) ;
#251 = CC_DESIGN_PERSON_AND_ORGANIZATION_ASSIGNMENT ( #181, #154, ( #46 ) ) ;
#252 = AXIS2_PLACEMENT_3D ( 'NONE', #254, #38, #74 ) ;
#253 = APPROVAL_STATUS ( 'not_yet_approved' ) ;
#254 = CARTESIAN_POINT ( 'NONE',  ( 0.000000000000000000, 0.000000000000000000, 6.500000000000000000 ) ) ;
#255 = CARTESIAN_POINT ( 'NONE',  ( 0.000000000000000000, 0.000000000000000000, 250.0000000000000000 ) ) ;
ENDSEC;
END-ISO-10303-21;
